Guitar Tabs, Chords and Lyrics


all his suits are torn   Nofx


|-------------------------------------------------







|-------------------------------------------------







|-10-10-10-10-10-10-10-10-10-10-10-10-10-10-10-10-


|-10-10-10-10-10-10-10-10-10-10-10-10-10-10-10-10-


|--8--8--8--8--8--8--8--8--8--8--8--8--8--8--8--8-


|-------------------------------------------------


 -----------------------------------------------------------------


 -----------------------------------------------------------------


 -7-7-7-7-7-7-7-7-7-7-7-7-7-7-7-7---------------------------------


 -7-7-7-7-7-7-7-7-7-7-7-7-7-7-7-7-8-8-8-8-8-8-8-8-8-8-8-8-8-8-8-8-


 -5-5-5-5-5-5-5-5-5-5-5-5-5-5-5-5-8-8-8-8-8-8-8-8-8-8-8-8-8-8-8-8-


 ---------------------------------6-6-6-6-6-6-6-6-6-6-6-6-6-6-6-6-


 --------------------------------------------------------------------------


 --------------------------------------------------------------------------


 -10-10-10-10-10-10-10-10-10-10-10-10-10-10-10-10--10-10-10-10-10-10-10-10-


 -10-10-10-10-10-10-10-10-10-10-10-10-10-10-10-10--10-10-10-10-10-10-10-10-


 --8--8--8--8--8--8--8--8--8--8--8--8--8--8--8--8---8--8--8--8--8--8--8--8-


 --------------------------------------------------------------------------


 -------------------------------------------------------------------------


 -------------------------------------------------------------------------


 -10-10-10-10-10-10-10-10-7-7-7-7-7-7-7-7-7-7-7-7-7-7-7-7-----------------


 -10-10-10-10-10-10-10-10-7-7-7-7-7-7-7-7-7-7-7-7-7-7-7-7-8-8-8-8-8-8-8-8-


 --8--8--8--8--8--8--8--8-5-5-5-5-5-5-5-5-5-5-5-5-5-5-5-5-8-8-8-8-8-8-8-8-


 ---------------------------------------------------------6-6-6-6-6-6-6-6-


 -------------------------------------------------------------------------


 -------------------------------------------------------------------------


 -------------------------------------------------------------------------


 -10-10-10-10-10-10-10-10-12-12-12-12-12-12-12-12-10-10-10-10-10-10-10-10-


 -10-10-10-10-10-10-10-10-12-12-12-12-12-12-12-12-10-10-10-10-10-10-10-10-


 --8--8--8--8--8--8--8--8-10-10-10-10-10-10-10-10--8--8--8--8--8--8--8--8-


 ------------------------|


 ------------------------|


 ------------------------|


 -8-8-8-8-8-8-8-8--11:---|


 -8-8-8-8-8-8-8-8--11:---|


 -6-6-6-6-6-6-6-6---9:---|




bridge


                                                                       


|---------------------------------------|
|---------------------------------------|
|-10-10--10-10--11-11-11-11-11-11-11-11-|
|-10-10--10-10--11-11-11-11-11-11-11-11-|
|--8--8---8--8---9--9--9--9--9--9--9--9-|
|---------------------------------------|




chorus


                                                                       


|-------------------------------------------------|
|-------------------------------------------------|
|-------------------------5-5-5-5-5-5-7-7-7-7-7-7-|
|-8-8-8-8-8-8-3-3-3-3-3-3-5-5-5-5-5-5-7-7-7-7-7-7-|
|-8-8-8-8-8-8-3-3-3-3-3-3-3-3-3-3-3-3-5-5-5-5-5-5-|
|-6-6-6-6-6-6-1-1-1-1-1-1-------------------------|




outro - played a couple of times


                                                                       


|------------|
|------------|
|-7--6-------|
|-7--6--3:---|
|-5--4--3:---|
|-------1:---|


Important: The song above is NOT stored on the Chordie server. The original song is hosted at www.geocities.com. Chordie works as a search engine and provides on-the-fly formatting. Chordie does not index songs against artists'/composers' will. To remove this song please click here.

This song is displayed as text-only. Transposing and tuning is only available for chordpro-songs.

Login - add to songbook

Rating click stars to rate

Layout
Accuracy

SHARE PAGE  




You need to log in to post comments