Chordie logo

brain constipation   Nofx



Date: Sun, October 19 1997

Group: NOFX
Album: Ribbed 
Released: 1991 epitaph records
Track: 11
Title: brain constipation

pm - palm mute
intro

                        pm________________________________________
|-----------------------------------------------------------------
|-----------------------------------------------------------------
|-14-14-14-14-14-14-14-14-9-9-9-9-7-7-7-7-7-7-7-7-6-6-6-6-9-9-9-9-
|-14-14-14-14-14-14-14-14-9-9-9-9-7-7-7-7-7-7-7-7-6-6-6-6-9-9-9-9-
|-12-12-12-12-12-12-12-12-7-7-7-7-5-5-5-5-5-5-5-5-4-4-4-4-7-7-7-7-
|-----------------------------------------------------------------

 ________________________________________________________________|
 -----------------------------------------------------------------
 -----------------------------------------------------------------
 -7-7-7-7-7-7-7-7-6-6-6-6-9-9-9-9-7-7-7-7-7-7-7-7-6-6-6-6-9-9-9-9-
 -7-7-7-7-7-7-7-7-6-6-6-6-9-9-9-9-7-7-7-7-7-7-7-7-6-6-6-6-9-9-9-9-
 -5-5-5-5-5-5-5-5-4-4-4-4-7-7-7-7-5-5-5-5-5-5-5-5-4-4-4-4-7-7-7-7-
 -----------------------------------------------------------------

 -------------------------|
 -------------------------|
 -14-14-14-14-14-14-14-14-|
 -14-14-14-14-14-14-14-14-|
 -12-12-12-12-12-12-12-12-|
 -------------------------|

verse

pm_______________________________________________________|
|---------------------------------------------------------------------------|
|---------------------------------------------------------------------------|
|-9-9-9-9-7-7-7-7-7-7-7-7-6-6-6-6-9-9-9-9-7-7-7-7-9-9-9-9-14-14-14-14-14-14-|
|-9-9-9-9-7-7-7-7-7-7-7-7-6-6-6-6-9-9-9-9-7-7-7-7-9-9-9-9-14-14-14-14-14-14-|
|-7-7-7-7-5-5-5-5-5-5-5-5-4-4-4-4-7-7-7-7-5-5-5-5-7-7-7-7-12-12-12-12-12-12-|
|---------------------------------------------------------------------------|

verse 2

|-------------------------------------------------------------------
|-------------------------------------------------------------------
|----------------------------------------------------5-4------------
|-12-11-12-14-12-12-10-12-9-12-10-12--12-11-12-14-12-5-4-5-12-10-12-
|----------------------------------------------------4-2-5----------
|--------------------------------------------------------3----------

 ------------------------------------------------------------|
 ------------------------------------------------------------|
 ----------------------------------------------------12------|
 -12-11-12-14-12-12-10-12-9-12-10-12--12-11-12-14-12-12-12-7-|
 ----------------------------------------------------10-12-7-|
 -------------------------------------------------------10-5-|

verse 3

pm________________________________________________________________________
|-------------------------------------------------------------------------
|-------------------------------------------------------------------------
|---------------------------------9-9-9-9-9-9-9-9-10-10-10-10-10-10-10-10-
|-3-3-3-3-3-3-3-3-5-5-5-5-5-5-5-5-9-9-9-9-9-9-9-9-10-10-10-10-10-10-10-10-
|-3-3-3-3-3-3-3-3-5-5-5-5-5-5-5-5-7-7-7-7-7-7-7-7--8--8--8--8--8--8--8--8-
|-1-1-1-1-1-1-1-1-3-3-3-3-3-3-3-3-----------------------------------------

 _________________________|
 -------------------------|
 -------------------------|
 -12-12-12-12-12-12-12-12-|
 -12-12-12-12-12-12-12-12-|
 -10-10-10-10-10-10-10-10-|
 -------------------------|

bridge - play it thru first then repeat the second half three more times

pm________________________|     |________________________|
|-------------------------------|-------------------------------|
|-------------------------------|-------------------------------|
|-------------------------------|-------------------------9-9-9-|

|-3-3-3-3-3-3-3-3-5-2-4-5-7-7-7-|-3-3-3-3-3-3-3-3-5-5-5-2-9-9-9-|
|-3-3-3-3-3-3-3-3-5-2-4-5-7-7-7-|-3-3-3-3-3-3-3-3-5-5-5-2-7-7-7-|
|-1-1-1-1-1-1-1-1-3-0-2-3-5-5-5-|-1-1-1-1-1-1-1-1-3-3-3-0-------|

lyrics

somebody hear me, somebody listen to me, am i alone in this world?
is there anyone listening? appease me, can't find a reason to be
alienation, is taking over me
i'm going away, can't go on any longer, 
i really don't know why i just gotta die
i never thought this is how it would end
the body swinging, i see it over and over again
vanian singing, can i ever listen to it again? 
a cry for attention was a cry never heard
with no one listening, there was nothing to be heard, nothing to be heard



Important: The song above is NOT stored on the Chordie server. The original song is hosted at www.geocities.com. Chordie works as a search engine and provides on-the-fly formatting. Chordie does not index songs against artists/composers will. To remove this song please click here.

This song is displayed as text-only. Transposing and tuning is only available for chordpro-songs.

Login - add to songbook

Rating click stars to rate

Layout
Accuracy

SHARE PAGE  



You need to log in to post comments