Guitar Tabs, Chords and Lyrics


brain stew   Green Day



Date: Thurs, July 15 1999

Group: Green Day
Album: Insomniac
Released: 1995 reprise records
Track: 10
Title: brain stew

x - scratch 

**tune � step down**


riff

|------------------------------------|
|------------------------------------|
|------------------------------------|
|-7-7-----5-5-----4-4------3-3--2-2--|
45656++69988
|-5-5-----3-3-----2-2------1-1--0-0--|

|-----------------------------------------------------------------|
|-----------------------------------------------------------------|
|-----------------------------------------------------------------|
|-7-7-x-x-x-x-x-x-5-5-x-x-x-x-x-x-4-4-x-x-x-x-x-x-3-3-x-x-2-2-x-x-|
|-7-7-x-x-x-x-x-x-5-5-x-x-x-x-x-x-4-4-x-x-x-x-x-x-3-3-x-x-2-2-x-x-|
|-5-5-x-x-x-x-x-x-3-3-x-x-x-x-x-x-2-2-x-x-x-x-x-x-1-1-x-x-0-0-x-x-|

lyrics

i'm having trouble tryin to sleep
i'm counting sheep but running out
as time ticks by and still i try
no rest for crosstops in my mind
on my own... here we go
my eyes feel like they're gonna bleed
dried up and bulging out my skull
my mouth is dry, my face is numb
fucked up and spun out in my room
on my own... here we go
my mind is set on overdrive
the clock is laughing in my face
a crooked spine my senses dulled
passed the point of delirium 
on my own... here we go


Important: The song above is NOT stored on the Chordie server. The original song is hosted at www.geocities.com. Chordie works as a search engine and provides on-the-fly formatting. Chordie does not index songs against artists/composers will. To remove this song please click here.

This song is displayed as text-only. Transposing and tuning is only available for chordpro-songs.

Login - add to songbook

Rating click stars to rate

Layout
Accuracy

SHARE PAGE  




You need to log in to post comments