Chordie logo

the brews   Nofx



Date: Thurs, October 30 1997

Group: NOFX
Album: Punk In Drublic
Released: 1994 epitaph records
Track: 8
Title: the brews
intro/verse

|-----------------------------------------------------------------|
|-----------------------------------------------------------------|
|---------------------------------9-9-9-9-8-8-8-8-----------------|
|-9-9-9-9-9-9-9-9-4-4-4-4-4-4-4-4-9-9-9-9-8-8-8-8-4-4-4-4-4-4-4-4-|
|-9-9-9-9-9-9-9-9-4-4-4-4-4-4-4-4-7-7-7-7-6-6-6-6-4-4-4-4-4-4-4-4-|
|-7-7-7-7-7-7-7-7-2-2-2-2-2-2-2-2-----------------2-2-2-2-2-2-2-2-|

chorus

|---------------------------------|
|---------------------------------|
|-9-9-9-9-9-9-9-9-----------------|
|-9-9-9-9-9-9-9-9-4-4-4-4-9-9-9-9-|
|-7-7-7-7-7-7-7-7-4-4-4-4-9-9-9-9-|
|-----------------2-2-2-2-7-7-7-7-|

verse 2 - "we've got the might" 

|---------------------------------|
|---------------------------------|
|-7-7-7-7-2-2-2-2-----------------|
|-7-7-7-7-2-2-2-2-2-2-2-2-5-5-5-5-|
|-5-5-5-5-0-0-0-0-2-2-2-2-5-5-5-5-|
|-----------------0-0-0-0-3-3-3-3-|

lyrics

friday night we'll be drinkin manashavitz, goin out to terrorize goyem
stompin shagitz, screwin schicksas as long as we're home by saturday mornin
cause hey! we're the brews sportin anti swastika tattoos oi! oi!
we're the boys, orthodox hesidic o.g. ois
orthopedic dr. martens good for waffle making kickin through the shins
reputation gained through intimidation pacifism no longer tradition
cause hey! we're the brews sportin anti swastika tattoos oi! oi! 
we're the brews the fairfax ghetto boys skinheaded brews
we've got the might psycho meshuganas, 
can't lose a fight and we are the chosen ones
chutspah driven, we battle then we feast 
we celebrate we separate our milkplates from our meat oi oi!
we're the brews, sportin anti swastika tattoos
we're the boys, orthodox hesidic o.g. ois



Important: The song above is NOT stored on the Chordie server. The original song is hosted at www.geocities.com. Chordie works as a search engine and provides on-the-fly formatting. Chordie does not index songs against artists/composers will. To remove this song please click here.

This song is displayed as text-only. Transposing and tuning is only available for chordpro-songs.

Login - add to songbook

Rating click stars to rate

Layout
Accuracy

SHARE PAGE  

You need to log in to post comments