"yes"; ?> come out and play by Offspring - guitar chords, guitar tabs and lyrics - chordie

come out and play

Offspring


Date: Sun, July 20 1997
Group: Offspring Album: SMASH Released: 1994 epitaph records Track: 7 Title: come out and play
/ - slide
intro
|-5-5-5-|played as harmonics |-5-5-5-| |-5-5-5-| |-------| |-------| |-------|
|---------------| |---------------| |-4-4-4/7-------| |-4-4-4/7--4/7--| |-2-2-2/5--4/7--| |----------2/5--|
guitar 2 riff
|-----------------| |-----------------| |-11-11-11/14-9-9-| |-----------------| |-----------------| |-----------------|
egyptian guitar riff
|-------------------------| |-------------------------| |-------------------------| |-----1-2/4-2-1-----------| |-2-3-----------3-2-2-3-2-| |-------------------------|
verse
|-----------------------------| |-----------------------------| |-----------------------------| |-4-4-4-4--4/7---4-4-4/7--4/7-| |-2-2-2-4--4/7---2-2-2/5--4/7-| |-------2--2/5------------2/5-|
before chorus (it goes down the same.....)
|-----------------------------| |-----------------------------| |-9-9--12-12--11-11-11--------|
|-9-9--12-12--11-11-11-9-9-9--| |-7-7--10-10--9--9--9--9-9-9--| |----------------------7-7-7--|
chorus
|---------------|-------------------------------------------------------| |---------------|-------------------------------------------------------| |-4-4-4/7-------|-9-9-9-9-9-9-9-5-5-5-5-5-5-5-4-4-4/7-------------------| |-4-4-4/7--4/7--|-9-9-9-9-9-9-9-5-5-5-5-5-5-5-4-4-4/7-4/7-4-4-4-4-4-4-4-| |-2-2-2/5--4/7--|-7-7-7-7-7-7-7-3-3-3-3-3-3-3-2-2-2/5-4/7-4-4-4-4-4-4-4-| |----------2/5--|-------------------------------------2/5-2-2-2-2-2-2-2-|
|----------------| |----------------| |-4-4-4/7------4-| |-4-4-4/7--4/7-4-| |-2-2-2/5--4/7-2-| |----------2/5---|
bridge
|------------------------| |------------------------| |------------------------| |-9-9-9-9--5-5-5-5-5-5-5-| |-7-7-7-7--3-3-3-3-3-3-3-| |------------------------|
lyrics
like the latest fashion like a spreading disease the kids are strappin' on their way to the classroom getting weapons with the greatest of ease the gangs stake their own campus locale and if they catch you slippin' then it's all over pal if one guy's colors and the others don't mix they're gonna bash it up hey-man you talkin' back to me? take him out you gotta keep 'em separated hey-man you disrespectin' me? take him out you gotta keep 'em separated hey they don't pay no mind if you're under 18 you wont be doin' any time hey come out and play by the time you hear the siren its already too late one goes to the morgue and the other to jail one guy's wasted and the other's a waste it goes down the same as a thousand before no one's gettin' smarter no one's learning the score your never ending spree of death and violence and hate is gonna tie your own rope




















variations - click chord images
Transpose chords:
Tuning:
Cool service:
View: Size:
A  A  A
Rating:
Layout:
  • Currently 0/5 Stars.
  • 1
  • 2
  • 3
  • 4
  • 5
 
Accuracy:
  • Currently 2.7/5 Stars.
  • 1
  • 2
  • 3
  • 4
  • 5
 
click stars to rate
Chordie recommends:
Learn how to play guitar at JamPlay.com
Songbook:
Login to add this song to your songbook
Support the artist
Preview/buy this song
MSN Music
Why this non-profit ad?

 
login to add comments/video/corrections