Guitar Tabs, Chords and Lyrics


dad's bad news   Nofx



Date: Sat, November 22 1997

Group: NOFX
Album: so long and thanks for all the shoes
Released: 1997 epitaph records
Track: 10
Title: dads bad news

pm - palm mute
intro

guitar 1

|----------------------------------------------|
|----------------------------------------------|
|----------------------------------------------|
|-10-10-10-11-10-8-6-6-6-6-6-6-4-4-5-5-5-5-6-5-|
|----------------------------------------------|
|----------------------------------------------|

guitar 2

|-----------------------------------------------------------------|
|-----------------------------------------------------------------|
|-------------------------------------------------8-8-8-8-8-8-8-8-|
|-6-6-6-6-6-6-6-6-2-2-2-2-2-2-2-2-4-4-4-4-4-4-4-4-8-8-8-8-8-8-8-8-|
|-6-6-6-6-6-6-6-6-2-2-2-2-2-2-2-2-4-4-4-4-4-4-4-4-6-6-6-6-6-6-6-6-|
|-4-4-4-4-4-4-4-4-0-0-0-0-0-0-0-0-2-2-2-2-2-2-2-2-----------------|

verse

pm___________________________________________________|   |_____|
|--------------------------------------------------------------------|
|--------------------------------------------------------------------|
|-----------------9-9-9-9-9-9-9-9-6-6-6-6-6-6-6-6-9-9--9--11-11--11--|
|-6-6-6-6-6-6-6-6-9-9-9-9-9-9-9-9-6-6-6-6-6-6-6-6-9-9--9--11-11--11--|
|-6-6-6-6-6-6-6-6-7-7-7-7-7-7-7-7-4-4-4-4-4-4-4-4-7-7--7---9--9---9--|
|-4-4-4-4-4-4-4-4----------------------------------------------------|

|-------------------------|
|-------------------------|
|-13-13-13-13-13-13-13-13-|
|-13-13-13-13-13-13-13-13-|
|-11-11-11-11-11-11-11-11-|
|-------------------------|

chorus - play the second part the second time the chorus is played

|-----------------------------------------------------------------------
|-----------------------------------------------------------------------
|-----------------------------------------------------------------------
|-9-9-9-9-9-9-9-9-9-9-9-9-9-9-11-11-11-11-11-11-11-11-11-11-11-11-11-11-
|-9-9-9-9-9-9-9-9-9-9-9-9-9-9-11-11-11-11-11-11-11-11-11-11-11-11-11-11-
|-7-7-7-7-7-7-7-7-7-7-7-7-7-7--9--9--9--9--9--9--9--9--9--9--9--9--9--9-

 --------------------------------|---------------------------------
 --------------------------------|---------------------------------
 -9-9-9-9-9-9-9-9-11-11-11-11-13-|---------------------------------
 -9-9-9-9-9-9-9-9-11-11-11-11-13-|-9-9-9-9-9-9-9-9-6-6-6-6-6-6-6-6-
 -7-7-7-7-7-7-7-7--9--9--9--9-11-|-9-9-9-9-9-9-9-9-6-6-6-6-6-6-6-6-
 --------------------------------|-7-7-7-7-7-7-7-7-4-4-4-4-4-4-4-4-

 -----------------------------------------------------------------
 -----------------------------------------------------------------
 -6-6-6-6-6-6-6-6-9-9-9-9-9-9-9-9---------------------------------
 -6-6-6-6-6-6-6-6-9-9-9-9-9-9-9-9-9-9-9-9-9-9-9-9-8-8-8-8-8-8-8-8-
 -4-4-4-4-4-4-4-4-7-7-7-7-7-7-7-7-9-9-9-9-9-9-9-9-8-8-8-8-8-8-8-8-
 ---------------------------------7-7-7-7-7-7-7-7-6-6-6-6-6-6-6-6-

 ---------------------------------|
 ---------------------------------|
 ---------------------------------|
 -6-6-6-6-6-6-6-6-6-6-6-6-6-6-6-6-|
 -6-6-6-6-6-6-6-6-6-6-6-6-6-6-6-6-|
 -4-4-4-4-4-4-4-4-4-4-4-4-4-4-4-4-|

lyrics

don't believe a word your grandfather says
he's been classified grade a psycotik
you can see it from the hole in his head
a saner man would have used a bigger gun
degeneration ah ah ah ah , the lunitic clause was written for you
the story spoken is a story unheard
by you so listen cause it's unbelievable
a certain trait has passed while centuries turned
this certain trait has been a family tradition
no simple way to tell you son, we share the same red tainted blood
i'm gonna kill me, you're gonna kill you, killing you
don't believe a word your grandfather says
don't believe a word your grandfather says
don't believe a word your grandfather says
he's a psycotik, grade a paycotic



Important: The song above is NOT stored on the Chordie server. The original song is hosted at www.geocities.com. Chordie works as a search engine and provides on-the-fly formatting. Chordie does not index songs against artists'/composers' will. To remove this song please click here.

This song is displayed as text-only. Transposing and tuning is only available for chordpro-songs.

Login - add to songbook

Rating click stars to rate

Layout
Accuracy

SHARE PAGE  




You need to log in to post comments