Guitar Tabs, Chords and Lyrics


dammit, i changed again   Offspring



Date: Saturday October 21, 2000

Group: Offspring
Album: Conspiracy Of One
Released: 2000 columbia records
Track: 6
Title: dammit, i changed again

: - let ring
x - scratch
pm - palm mute
/ \ - slide
intro 

|-------------------------------------------------------------|----|
|-------------------------------------------------------------|----|
|-----/-10-10-13-12-13-8-8-13-12-13-10-10-13-12-13-15-13-12-8-|-10-|
|-3:--/--x--x--x--x--x-x-x--x--x--x--x--x--x--x--x--x--x--x-x-|--x-|
|-3:--/--8--8-11-10-11-6-6-11-10-11--8--8-11-10-11-13-11-10-6-|--8-|
|-1:----------------------------------------------------------|----|

pre chorus
pm_______________|
|--------------------|
|--------------------|
|-8-8-8-8-8-8-8-8-10-|
|-8-8-8-8-8-8-8-8-10-|
|-6-6-6-6-6-6-6-6--8-|
|--------------------|

chorus

|-------------------------------------------------------------------------|
|-------------------------------------------------------------------------|
|-10-10-10-10-10-10-10-10-6-6-6-6-6-6-6-6-----------------8-8-8-8-8-8-8-8-|
|-10-10-10-10-10-10-10-10-6-6-6-6-6-6-6-6-6-6-6-6-6-6-6-6-8-8-8-8-8-8-8-8-|
|--8--8--8--8--8--8--8--8-4-4-4-4-4-4-4-4-6-6-6-6-6-6-6-6-6-6-6-6-6-6-6-6-|
|-----------------------------------------4-4-4-4-4-4-4-4-----------------|

pre chorus 2
pm________________________________________________________________________
|-------------------------------------------------------------------------
|-------------------------------------------------------------------------
|-------------6-6-6-6-6-6-------------8-8-8-8-8-8-------------6-6-6-6-6-6-
|-3-3-3-3-3-3-6-6-6-6-6-6-6-6-6-6-6-6-8-8-8-8-8-8-3-3-3-3-3-3-6-6-6-6-6-6-
|-3-3-3-3-3-3-4-4-4-4-4-4-6-6-6-6-6-6-6-6-6-6-6-6-3-3-3-3-3-3-4-4-4-4-4-4-
|-1-1-1-1-1-1-------------4-4-4-4-4-4-------------1-1-1-1-1-1-------------
 ________________|
 -------------------|
 -------------------|
 -----------------8-|
 -6-6-6-6-6-6-6-6-8-|
 -6-6-6-6-6-6-6-6-6-|
 -4-4-4-4-4-4-4-4---|

bridge

|--------------------------------------------------------------------------|
|--------------------------------------------------------------------------|
|--------------------------------------------------------------------------|
|-10----10----10-----11----11----11-----10----10----10-----8----8----8-----|
|----11----11-----11----11----11-----11----11----11-----11---10---10----10-|
|--------------------------------------------------------------------------|

lyrics

hey, come inside while i stand here acting bold 
(can't stand to feel this way) clear out the cobwebs in my soul
this time i turn around and things have changed 
now i don't feel the same
start a fight i can't defend
one more time, dammit, i changed again
now i don't see things the way i did before
(can't stand to feel this way)
things important yesterday don't matter anymore
it doesn't make any sense to feel so different day to day
(can't stand to feel this way) when nothing's changed except for me


Important: The song above is NOT stored on the Chordie server. The original song is hosted at www.geocities.com. Chordie works as a search engine and provides on-the-fly formatting. Chordie does not index songs against artists'/composers' will. To remove this song please click here.

This song is displayed as text-only. Transposing and tuning is only available for chordpro-songs.

Login - add to songbook

Rating click stars to rate

Layout
Accuracy

SHARE PAGE  




You need to log in to post comments