Guitar Tabs, Chords and Lyrics


180 degrees   Nofx



Date: Thurs, November 20 1997

Group: NOFX
Album: so long and thanks for all the shoes
Released: 1997 epitaph records
Track: 5
Title: 180 degrees

/ \ - slide
: - let ring
intro

|------------------------------------------------------------------|
|------------------------------------------------------------------|
|-5-5----------------------------5-5-----------------------6-6-6-6-|
|-5-5-5/6-6-6-6-5-5-5-5-3-3-3-3--5-5-5/6-6--5/6-6--5-5-5-5-6-6-6-6-|
|-3-3-5/6-6-6-6-5-5-5-5-3-3-3-3--3-3-5/6-6--5/6-6--5-5-5-5-4-4-4-4-|
|-----3/4-4-4-4-3-3-3-3-1-1-1-1------3/4-4--3/4-4--3-3-3-3---------|

ska riff

guitar 1

|-7-7-7-7-7-7-7-7--7-5-5-5-5-5-5-5-5--5-10-10-10-10-10-10-10-10--
|-8-8-8-8-8-8-8-8--8-6-6-6-6-6-6-6-6--6-11-11-11-11-11-11-11-11--
|-7-7-7-7-7-7-7-7--7-5-5-5-5-5-5-5-5--5-10-10-10-10-10-10-10-10--
|----------------------------------------------------------------
|----------------------------------------------------------------
|----------------------------------------------------------------

 -10--9--9--9--9--9--9--9--9-|
 -11-10-10-10-10-10-10-10-10-|
 -10--9--9--9--9--9--9--9--9-|
 ----------------------------|
 ----------------------------|
 ----------------------------|

guitar 2 - occasionally comes in with

|-----9-----|
|---9---9---|
|-9-------9-|
|-----------|
|-----------|
|-----------|

verse

|--------------------------------------------------------------------------|
|--------------------------------------------------------------------------|
|-5-5-5-5-5-5-5-5-3-3-3-3-3-3-3-3--------------------------5-5-5-5-5-5-5-5-|
|-5-5-5-5-5-5-5-5-3-3-3-3-3-3-3-3--------------------------5-5-5-5-5-5-5-5-|
|-3-3-3-3-3-3-3-3-1-1-1-1-1-1-1-1-10-10-10-8-8-8-7-7-7-8:--3-3-3-3-3-3-3-3-|
|--------------------------------------------------------------------------|

bridge

|---------------------------------------------|
|---------------------------------------------|
|-10-9-7-5-5-7-5-7-10-10-10-10-9-9-10-9-7-7-5-|
|-10-9-7-5-5-7-5-7-10-10-10-10-9-9-10-9-7-7-5-|
|--8-7-5-3-3-5-3-5--8--8--8--8-7-7--8-7-5-5-3-|
|---------------------------------------------|

"yeah, i now.."                    end this part with

|---------------------------------|-------|
|---------------------------------|-------|
|-5-5-5-5---------3-3-3-3---------|-10:---|
|-5-5-5-5-5-5-5-5-3-3-3-3-3-3-3-3-|-10:---|
|-3-3-3-3-5-5-5-5-1-1-1-1-3-3-3-3-|--8:---|
|---------3-3-3-3---------1-1-1-1-|-------|

lyrics

it's so easy to defend the status quo, with everyone so cool and cynical
but when you see the end don't justify the means, it's just that 180 degrees
the great thing about bein' a human, the ability to reason
but reasoning don't work when no one cares, 2 parts apathy, one part despair
guess what, this might comes as a surprise, i'll no longer roll my eyes
a change of heart to let the conscience breath
one quick twist, just 180 degrees
yeah, i now know the right thing to do
yeah, anti tradition tried and true
yeah, a world where wrong has right of way 
yeah, fuck that world, fuck that heirarchy
go ahed, work, waste your life away
fuck that world, go fuck that right of way



Important: The song above is NOT stored on the Chordie server. The original song is hosted at www.geocities.com. Chordie works as a search engine and provides on-the-fly formatting. Chordie does not index songs against artists'/composers' will. To remove this song please click here.

This song is displayed as text-only. Transposing and tuning is only available for chordpro-songs.

Login - add to songbook

Rating click stars to rate

Layout
Accuracy

SHARE PAGE  




You need to log in to post comments