Guitar Tabs, Chords and Lyrics


hypodermic   Offspring



Date: Mon, May 19 1997

Group: Offspring
Album: Ignition
Released: 1992 epitaph records
Track: 7
Title: hypodermic

/ \ - slide
pm - palm mute
: - let ring
intro/verse
        pm_________________________________________________|
|----------------------------------------------------------|
|----------------------------------------------------------|
|----------------------------------4-4-4-4-4-4-4-------6-6-|
|---------6--6-6-6-6-6-6-6-6-2-2-2-4-4-4-4-4-4-4-4-4-4-6-6-|
|--12\----6--6-6-6-6-6-6-6-6-2-2-2-2-2-2-2-2-2-2-4-4-4-4-4-|
|---------4--4-4-4-4-4-4-4-4-0-0-0---------------2-2-2-----|

pre-chorus                               end pre-chorus with 

|------------------------------|         |-------------|
|------------------------------|         |-------------|
|-------------10-5-5-5-5-5-5-7-|         |-10:---12:---|
|-7-7-7-7-7-7-10-5-5-5-5-5-5-7-|         |-10:---12:---|
|-7-7-7-7-7-7--8-3-3-3-3-3-3-5-|         |--8:---10:---|
|-5-5-5-5-5-5------------------|         |-------------|

chorus                                   end chorus with

|-------------------------------|        |-------------|
|-------------------------------|        |-------------|
|----------5--7-----------5-----|        |-10:---12:---|
|-7-7-7-7--5--7--7-7-7-7--5--5--|        |-10:---12:---|
|-7-7-7-7--3--5--7-7-7-7--3--5--|        |--8:---10:---|
|-5-5-5-5--------5-5-5-5-----3--|        |-------------|

outro 

|--------------------------------|
|--------------------------------|
|----------5--7-----------8-9-10-|
|-7-7-7-7--5--7--7-7-7-7--8-9-10-|
|-7-7-7-7--3--5--7-7-7-7--6-7--8-|
|-5-5-5-5--------5-5-5-5---------|

lyrics

when you're feeling low
hypodermic's where you go
when you're with yourself 
you wish you could be someone else
can't you see like you saw anymore
can't you feel like you felt before
can't you face anything anymore
when life's a waste run away
your life's a waste run away
once you get a ride 
doesn't matter where you lied
once you shoot it in 
doesn't matter who you've been
you're reaching in
but you don't know where to begin
all your dance and song 
won't matter when you're gone



Important: The song above is NOT stored on the Chordie server. The original song is hosted at www.geocities.com. Chordie works as a search engine and provides on-the-fly formatting. Chordie does not index songs against artists/composers will. To remove this song please click here.

This song is displayed as text-only. Transposing and tuning is only available for chordpro-songs.

Login - add to songbook

Rating click stars to rate

Layout
Accuracy

SHARE PAGE  




You need to log in to post comments