Guitar Tabs, Chords and Lyrics


j.a.r.   Green Day



Date: Tuesday August 6, 2002

Group: Green Day
Album: International Superhits
Released: 2001 reprise records
Track: 8
Title: j.a.r. (jason andrew relva)

pm - palm mute


intro

|-------|
|-------|
|-11--6-|
|-11--6-|
|--9--4-|
|-------|

verse

|-----------------------------------------------------------------|
|-----------------------------------------------------------------|
|-------------------------------------------------6-6-6-6---------|
|-4-4-4-4-4-4-4-4-6-6-6-6-6-6-6-6-4-4-4-4-4-4-4-4-6-6-6-6-6-6-6-6-|
|-4-4-4-4-4-4-4-4-6-6-6-6-6-6-6-6-4-4-4-4-4-4-4-4-4-4-4-4-6-6-6-6-|
|-2-2-2-2-2-2-2-2-4-4-4-4-4-4-4-4-2-2-2-2-2-2-2-2---------4-4-4-4-|

chorus

|-------------------------------------------------------------------------
|-------------------------------------------------------------------------
|-------------------------6-6-6-6-6-6-6-6-6-6-6-6-------------------------
|-4-4-4-4-4-4-4-4-4-4-4-4-6-6-6-6-6-6-6-6-6-6-6-6-6-6-6-6-6-6-6-6-6-6-6-6-
|-4-4-4-4-4-4-4-4-4-4-4-4-4-4-4-4-4-4-4-4-4-4-4-4-6-6-6-6-6-6-6-6-6-6-6-6-
|-2-2-2-2-2-2-2-2-2-2-2-2-------------------------4-4-4-4-4-4-4-4-4-4-4-4-

 -------------------------------------------------------------------------
 -------------------------------------------------------------------------
 -----------------6-6-6-6-6-----------------------------6-6-6-------6-6-6-
 -4-4-4-4-4-4-4-4-6-6-6-6-6-6-6-6-6-6-6-6-6-6-6-6-4-4-4-6-6-6-6-6-6-6-6-6-
 -4-4-4-4-4-4-4-4-4-4-4-4-4-6-6-6-6-6-6-6-6-6-6-6-4-4-4-4-4-4-6-6-6-4-4-4-
 -2-2-2-2-2-2-2-2-----------4-4-4-4-4-4-4-4-4-4-4-2-2-2-------4-4-4-------

 -----------------------|
 -----------------------|
 -------6-6-6-------6---|
 -4-4-4-6-6-6-6-6-6-6-6-|
 -4-4-4-4-4-4-6-6-6-4-6-|
 -2-2-2-------4-4-4---4-|
 
bridge
pm________________________________________________________________
|-----------------------------------------------------------------
|-----------------------------------------------------------------
|-4-4-4-4-4-4-4-4-----------------6-6-6-6-6-6-6-6-----------------
|-4-4-4-4-4-4-4-4-4-4-4-4-4-4-4-4-6-6-6-6-6-6-6-6-6-6-6-6-6-6-6-6-
|-2-2-2-2-2-2-2-2-4-4-4-4-4-4-4-4-4-4-4-4-4-4-4-4-6-6-6-6-6-6-6-6-
|-----------------2-2-2-2-2-2-2-2-----------------4-4-4-4-4-4-4-4-
 ________________________________|
 ---------------------------------------------------|
 ---------------------------------------------------|
 -4-4-4-4-4-4-4-4-------------------------------6---|
 -4-4-4-4-4-4-4-4-4-4-4-4-4-4-4-4-6-6-6-6-6-6---6-6-|
 -2-2-2-2-2-2-2-2-4-4-4-4-4-4-4-4-6-6-6-6-6-6---4-6-|
 -----------------2-2-2-2-2-2-2-2-4-4-4-4-4-4-----4-|
 
lyrics

my friend drove off the other day and now he's gone and all they say
is you gotta live 'cause life goes on
but now i see i'm mortal too i can't live my life like you
gotta live it up while life goes on
and i think it's alright that i do what i like 
'cause that's the way i wanna live
it's how i give and i'm still giving
and now i wonder about my friend if he gave all he could give
'cause he lived his life like i live mine
if you could see inside my head then you'd start to understand
the things i value in my heart
you know that,i know that, you're watching me
gotta make a plan, gotta do what's right
can't run around in circles, if you wanna build a life
but i don't wanna make a plan for a day far away
while i'm young and while i'm able, all i wanna do is...


Important: The song above is NOT stored on the Chordie server. The original song is hosted at www.geocities.com. Chordie works as a search engine and provides on-the-fly formatting. Chordie does not index songs against artists'/composers' will. To remove this song please click here.

This song is displayed as text-only. Transposing and tuning is only available for chordpro-songs.

Login - add to songbook

Rating click stars to rate

Layout
Accuracy

SHARE PAGE  




You need to log in to post comments