Guitar Tabs, Chords and Lyrics


madman   Silverchair


|-----------------------|







|-----------------------|







|-----------------------|


|-----------------------|


|-5-------5-5-5---------|


|-0-0-0-0-0-0-0-0-0-0-0-|


|-----------------------------|--------|


|-----------------------------|--------|


|-----------------------------|--6--6--|


|-2-0-2-0-2h3-0--2-0-2-0-2h3--|--6--6--|


|-2-0-2-0-2h3-0--2-0-2-0-2h3--|--4--4--|


|-2-0-2-0-2h3-0--2-0-2-0-2h3--|--------|


|----------------------------------------------------|


|----------------------------------------------------|


|--7---------7-7-7----------7---------7-7-7----------|


|--7---------7-7-7----------7---------7-7-7----------|


|--5---------5-5-5----------5---------5-5-5----------|


|----0-0-0-0-------0-0-0-0----0-0-0-0-------0-0-0-0--|


|-----------------------------------|


|-----------------------------------|


|-----------------------------------|


|--2-0-2-0-2-3-0--2--0-2-0-2-3--0---|


|--2-0-2-0-2-3-0--2--0-2-0-2-3--0---|


|--2-0-2-0-2-3-0--2--0-2-0-2-3--0---|




riff


                                                           


|---------------------------|
|---------------------------|
|---------------------------|
|---------------------------|
|-9-9-9-9-9-9-9-9-9-9/10\7--|
|-0-0-0-0-0-0-0-0-0-0--0-0--|


Important: The song above is NOT stored on the Chordie server. The original song is hosted at www.geocities.com. Chordie works as a search engine and provides on-the-fly formatting. Chordie does not index songs against artists'/composers' will. To remove this song please click here.

This song is displayed as text-only. Transposing and tuning is only available for chordpro-songs.

Login - add to songbook

Rating click stars to rate

Layout
Accuracy

SHARE PAGE  




You need to log in to post comments