Guitar Tabs, Chords and Lyrics


nothing from something   Offspring



Date: Sun, May 25 1997

Group: Offspring
Album: Ignition
Released: 1992 epitaph records
Track: 11
Title: nothing from something

pm - palm mute (play with pm until the line above stops, then release pm)
x - scratch
: - let ring
intro/main riff

|------------------------------------------------------------|
|------------------------------------------------------------|
|-x-9-9-7-9-9-7-7-7-7-7-9-9--x-9-9-7-9-9-7-7-7-7-7-4-4-4-4-4-|
|-x-9-9-7-9-9-7-7-7-7-7-9-9--x-9-9-7-9-9-7-7-7-7-7-4-4-4-4-4-|
|-x-7-7-5-7-7-5-5-5-5-5-7-7--x-7-7-5-7-7-5-5-5-5-5-2-2-2-2-2-|
|------------------------------------------------------------|

|------------------------------------------|
|------------------------------------------|
|-x-9-9-7-9-9-7-7-7-7-7-9-9--5:----4-4:--7-|
|-x-9-9-7-9-9-7-7-7-7-7-9-9--5:----4-4:--7-|
|-x-7-7-5-7-7-5-5-5-5-5-7-7--3:----2-2:--5-|
|------------------------------------------|

verse

|-----------------------------------------------------------|
|-----------------------------------------------------------|
|-9-9-9-7-7-7-------9-9-9-9-9-9-9-9-9-9-9-5-5-5-7-7-7-9-9-9-|
|-9-9-9-7-7-7-7-7-7-9-9-9-9-9-9-9-9-9-9-9-5-5-5-7-7-7-9-9-9-|
|-7-7-7-5-5-5-7-7-7-7-7-7-7-7-7-7-7-7-7-7-3-3-3-5-5-5-7-7-7-|
|-------------5-5-5-----------------------------------------|

chorus

|-----------------------------------|
|-----------------------------------|
|-9-9-9-9-11-12-11-11-7-7-7-4-4-4-4-|
|-9-9-9-9-11-12-11-11-7-7-7-4-4-4-4-|
|-7-7-7-7--9-10--9--9-5-5-5-2-2-2-2-|
|-----------------------------------|

bridge

pm_______________________________________________________________|
|----------------------------------------------------------------|
|----------------------------------------------------------------|
|----------------------------------------------------------------|
|-------------9---------------9--------------9-10-10-9-9---------|
|---7-7-10-10-------7-7-10-10------7-7-10-10-------------10-10-9-|
|-0-------------0-0--------------0-------------------------------|

outro

pm_______________________________|
|-------------------------------------|
|-------------------------------------|
|-7-7-7-7-7-7-7-7-9-9-9-9-9-9-9-9-----|
|-7-7-7-7-7-7-7-7-9-9-9-9-9-9-9-9-2:--|
|-5-5-5-5-5-5-5-5-7-7-7-7-7-7-7-7-2:--|
|---------------------------------0:--|

lyrics

things are coming down on me, they never seem to let it be
it seems like everything i say just starts another fight
the pressure's building up inside - i gotta let it out tonight
shattered glass will cure my ills and make me feel alright
gonna break it and never stop running
making nothing from something
making nothing from something
cut me for the lions share, it's mindless but i don't care
'cause no matter what i say i'm in another fight
take more shit i've had enough, tonight i'm gonna rip it up
broken windows cure my ills and make me feel alright



Important: The song above is NOT stored on the Chordie server. The original song is hosted at www.geocities.com. Chordie works as a search engine and provides on-the-fly formatting. Chordie does not index songs against artists'/composers' will. To remove this song please click here.

This song is displayed as text-only. Transposing and tuning is only available for chordpro-songs.

Login - add to songbook

Rating click stars to rate

Layout
Accuracy

SHARE PAGE  




You need to log in to post comments