Guitar Tabs, Chords and Lyrics


professional crastination   Nofx



Date: Sat, October 4 1997

Group: NOFX
Album: S & M Airlines
Released: 1989 epitaph records
Track: 3
Title: professional crastination

x - scratch
intro

|---------------------------------------------------------------|
|-5-5-x-5-5-5-5-x-8-8-x-8-8-8-8-x-5-5-x-5-5-5-5-x-6-6-x-6-6-6-6-|
|-4-4-x-4-4-4-4-x-7-7-x-7-7-7-7-x-6-6-x-6-6-6-6-x-5-5-x-5-5-5-5-|
|---------------------------------------------------------------|
|---------------------------------------------------------------|
|---------------------------------------------------------------|

verse

|---------------------------------------------------------------|
|---------------------------------------------------------------|
|-9-9-9-9-12-11-9--9-9-9-9-12-11-9--9-9-9-9-12-11-9-7-7-7-5-5-5-|
|-9-9-9-9-12-11-9--9-9-9-9-12-11-9--9-9-9-9-12-11-9-7-7-7-5-5-5-|
|-7-7-7-7-10--9-7--7-7-7-7-10--9-7--7-7-7-7-10--9-7-5-5-5-3-3-3-|
|---------------------------------------------------------------|

chorus

|---------------------------------------------|
|---------------------------------------------|
|-9-9-9-9-12-12-12-12-14-14-14-14-16-16-16-16-|
|-9-9-9-9-12-12-12-12-14-14-14-14-16-16-16-16-|
|-7-7-7-7-10-10-10-10-12-12-12-12-14-14-14-14-|
|---------------------------------------------|

bridge

|----------------------------------------------------------------
|----------------------------------------------------------------
|-9-9-9-9-12--11--12--11-7-7-7-7-9-9-9-9--9-9-9-9-12--11--12--11-
|-9-9-9-9-12--11--12--11-7-7-7-7-9-9-9-9--9-9-9-9-12--11--12--11-
|-7-7-7-7-10---9--10---9-5-5-5-5-7-7-7-7--7-7-7-7-10---9--10---9-
|----------------------------------------------------------------

 -----------------|
 -----------------|
 -7-7-7-7-5-5-4-4-|
 -7-7-7-7-5-5-4-4-|
 -5-5-5-5-3-3-2-2-|
 -----------------|

bridge 2 - (why can't we....)

|-------------------------------------------------|
|-------------------------------------------------|
|-----7:------9:----------7-7-7-7---------9-9-9-9-|
|-5:--7:--7:--9:--5-5-5-5-7-7-7-7-7-7-7-7-9-9-9-9-|
|-5:--5:--7:--7:--5-5-5-5-5-5-5-5-7-7-7-7-7-7-7-7-|
|-3:------5:------3-3-3-3---------5-5-5-5---------|

lyrics

can't you see how easy it becomes pro crastinate, were professionals
get things done, you can't, to busy having fun were professionals
professional crastination its a way of life if you've got lots of time
put it off cause tomarrow sounds much better then today
always late , not sometimes occassionaly consistently, were professionals
professional crastination we're living in a procrasti-nation
why can't we ever be on time?
professional crastination it's a way of life if you've got lots of time
professional crastination we're living in a procrasti-nation
professional crastination



Important: The song above is NOT stored on the Chordie server. The original song is hosted at www.geocities.com. Chordie works as a search engine and provides on-the-fly formatting. Chordie does not index songs against artists/composers will. To remove this song please click here.

This song is displayed as text-only. Transposing and tuning is only available for chordpro-songs.

Login - add to songbook

Rating click stars to rate

Layout
Accuracy

SHARE PAGE  




You need to log in to post comments