Chordie logo


shade   Silverchair


|---------3-3-3-3--3-3-3--0-0--|---------3-3-3-3--3-----------------|







|-5h6--6--3-3-3-3--1-1-1--1/3--|-5h6--6--3-3-3-3--1-----------------|







|-5h7--7--0-0-0-0--0-0-0--2/4--|-5h7--7--0-0-0-0--0-----------------|


|-5h7--7--2-2-2-2--2-2-2--3/5--|-5h7--7--2-2-2-2--2----2------------|


|-5----5--3-3-3-3--0-0-0-------|-5----5--3-3-3-3--0--0---0--3-0h3/5-|


|---------0-0-0-0--------------|---------0-0-0-0--------------------|


|-5-5-5-5--3-3-3-3--3-3-3--3--|


|-6-6-6-6--3-3-3-3--1-1-1--3--|


|-7-7-7-7--0-0-0-0--0-0-2--0--|


|-7-7-7-7--2-2-2-2--2-2-3--0--|


|-5-5-5-5--3-3-3-3--0-0-0--2--|


|----------0-0-0-0---------3--|




                                                                          


|--------------------3-3-3-3--3-3-3-------------|
|-6--6-6-------------3-3-3-3--3-3-3---------6---|
|-7--7-7--2--2-2-2-2-0-0-0-0--0-0-0-------3/7---|
|-7--7-7--3--3-3-3-3-2-2-2-2--0-0-0-------3/7---|
|-5--5-5--3--3-3-3-3-3-3-3-3--2-2-2-------3/5---|
|---------1--1-1-1-1-0-0-0-0--3-3-3--3h5--------|




solo


                                                                          


|------------------------------------------------------------------
|-----6------------------------------------------------------------
|-5h7---7--7-----5------------------------------10--------------10-
|------------5h7---------------5/12-5/10--10h12----12p10-----10----
|------------------5h7--5--5h7----------------------------12-------
|------------------------------------------------------------------
 ------------------------------------------------------------------
 ------------------------------------------------------------------
 -9--9--9p7--7--7--7--7h9--10--9h10--12--10-------10---------------
 -------------------------------------------10h12-----h12----------
 ---------------------------------------------------------10h12----
 ---------------------------------------------------------------10-
 --------------------------------------------------------------------|
 -------10h11p10-----------------------------------------------------|
 -10h12----------12--10--9--9--9h10--10h12--9h10---------------------|
 -------------------------------------------------10---------10--10--|
 -----------------------------------------------------10h12----------|
 --------------------------------------------------------------------|




post solo


                                                                          


|---------3----------------------3---3-3-3--3--3--------|
|-5h6--6--3-------------------6--3---3-3-3--3--3--------|
|-5h7--7--0--------------3/5--7--0---0-0-0--0--0--------|
|-5h7--7--2----2---------3/5--7--2---2-2-2--0--0--------|
|-5----5--3--0---0--3--0h3/5--5--3---3-3-3--2--2-----3--|
|---------0----------------------0---0-0-0--3--3-3h5----|


Important: The song above is NOT stored on the Chordie server. The original song is hosted at www.geocities.com. Chordie works as a search engine and provides on-the-fly formatting. Chordie does not index songs against artists/composers will. To remove this song please click here.

This song is displayed as text-only. Transposing and tuning is only available for chordpro-songs.

Login - add to songbook

Rating click stars to rate

Layout
Accuracy

SHARE PAGE  




You need to log in to post comments