Chordie logo


waiting   Green Day



Date: Monday October 16, 2000

Group: Green Day
Album: Warning
Released: 2000 reprise records
Track: 10
Title: waiting
intro/verse

|-------------------------------------------------------------------------
|-------------------------------------------------------------------------
|-------------6-6-6-6-6-6-------------6-6-6-6-6-6-------------6-6-6-6-6-6-
|-6-6-6-6-6-6-6-6-6-6-6-6-8-8-8-8-8-8-6-6-6-6-6-6-6-6-6-6-6-6-6-6-6-6-6-6-
|-6-6-6-6-6-6-4-4-4-4-4-4-8-8-8-8-8-8-4-4-4-4-4-4-6-6-6-6-6-6-4-4-4-4-4-4-
|-4-4-4-4-4-4-------------6-6-6-6-6-6-------------4-4-4-4-4-4-------------

 -------------------------|
 -------------------------|
 -------------6-6-6-6-6-6-|
 -8-8-8-8-8-8-6-6-6-6-6-6-|
 -8-8-8-8-8-8-4-4-4-4-4-4-|
 -6-6-6-6-6-6-------------|

chorus

|--------------------------------------------------|
|--------------------------------------------------|
|-------------------------3-3-3-3--6-6-6-------6-6-|
|-4-4-4-4-3-3-3-3-2-2-2-2-3-3-3-3--6-6-6-6-6-6-6-6-|
|-4-4-4-4-3-3-3-3-2-2-2-2-1-1-1-1--4-4-4-6-6-6-4-4-|
|-2-2-2-2-1-1-1-1-0-0-0-0----------------4-4-4-----|

chorus 2

|------------------------------------------------------------------|
|------------------------------------------------------------------|
|-------------------------3-3-3-3--6-6-6-------6-6-6-------6---6---|
|-4-4-4-4-3-3-3-3-2-2-2-2-3-3-3-3--6-6-6-6-6-6-6-6-6-6-6-6-6-6-6-6-|
|-4-4-4-4-3-3-3-3-2-2-2-2-1-1-1-1--4-4-4-6-6-6-4-4-4-6-6-6-4-6-4-6-|
|-2-2-2-2-1-1-1-1-0-0-0-0----------------4-4-4-------4-4-4---4---4-|

solo

|---------------------------------------------------------------|
|---------------------------------------------------------------|
|-8-5---------------8-5-----------------------------------------|
|-----8-10-11-10-8------8-10-11-10-8--10----8-10-11-10-8--8--6--|
|----------------------------------------11---------------------|
|---------------------------------------------------------------|

lyrics

i've been waiting for a long time for this moment to come
i'm destined for anything at all
downtown lights will be shining on me like a diamond
ring out under the midnight hour 
no one can touch me now and i can't turn my back
it's too late ready or not at all
i'm so much closer than i have ever known
wake up
dawning of a new era calling don't let it catch you falling
ready or not at all 
so close enough to taste it almost i can embrace this
feeling on the tip of my tongue
i'm so much closer than i have ever known
wake up
better thank your lucks stars
i've been waiting a long time for this moment to come
i'm destined for anything at all
dumbstruck colour me stupid
good luck you're gonna need it
where i'm going if i get there at all
wake up
better thank your lucky stars


Important: The song above is NOT stored on the Chordie server. The original song is hosted at www.geocities.com. Chordie works as a search engine and provides on-the-fly formatting. Chordie does not index songs against artists/composers will. To remove this song please click here.

This song is displayed as text-only. Transposing and tuning is only available for chordpro-songs.

Login - add to songbook

Rating click stars to rate

Layout
Accuracy

SHARE PAGE  




You need to log in to post comments