Guitar Tabs, Chords and Lyrics


April 29, 1992 (Miami)  Sublime

APRIL 26 1992,
Intro:
play 2x all palm muted
        --------------------------------------------------------
        --------------------------------------------------------
        --------------------------------------------------------
        -0---0---0----------------0---0---0---------------------
        -------0----3-3-3-3---3---------0---------------3-3-3-3-
        --------------------3------------------1-1-1-1----------

Verse:
G 7 X
        [D]   [7]   [7]          [A]E  [5]X  [7]5
"...hearing today"
play 4x palm muted
        --------------------------------------------------------
        --------------------------------------------------------
        --------------------------------------------------------
        -----0----0--3--5----0-0-0-0--3-5-----------------------
        --------------------------------------------------------
        --------------------------------------------------------

Power chords
        G  [A] 2  [G] X  [A] 2  [G] X  [D] 7
        [D]A   [2]0   [5]5   [2]0   [5]5   [7]5
E X 3 X 3 X
        --------------------------------------------------------
        --------------------------------------------------------
        --------------------------------------------------------
        -0----------------------0-------------------------------
        ----0--0---5-4-3-----3-----0--0---5-3-------------------
        -----------------3-3-------------------1-1-1-1--3-3-3-3-    

Important: The song above is NOT stored on the Chordie server. The original song is hosted at www.geocities.com. Chordie works as a search engine and provides on-the-fly formatting. Chordie does not index songs against artists'/composers' will. To remove this song please click here.

Text color:
Chord color:
Chord grids: 
Font size:    
Page size: 

A D G
variations - click chord images

Login - add to songbook

Transpose chords

Tuning

Rating click stars to rate

Layout
Accuracy

SHARE PAGE  




You need to log in to post comments