"yes"; ?> Santeria by Sublime - guitar chords, guitar tabs and lyrics - chordie

Santeria

Sublime

 EAb
e--------------------    e----------------
b--------------------    b---4------------
g-----9-------9-9----    g-----5----------
d---9---9---------9--    d-------6--------
a-7-------7-7-------7    a-----------6-2-4
e--------------------    e-4-------4------

 DbmB
e--------------------    e---2------------
b-----------5--------    b-----4----------
g-----6-------6------    g-------4--------
d---6---6-------6----    d----------------
a-4-------4----------    a-2-------2------
e--------------------    e----------------

E, Ab, Dbm, B
Verse 1:
 EAb
I don't practice santeria I ain't got no crystal ball
 DbmB
I had a million dollars but I'd, I'd spend it all
 EAb
If I could find that Heina and that Sancho she's found
 DbmB
Well I'd pop a cap in Sancho and I'd   slap her down
Chorus:
 ABEDbm
 All I really wanna know my baby
 ABEDbmA
 All I really wanna say I can't define
 BEDbm
It's love that I nee 
 AB
 But my soul will have to
Verse 2:
 E
     Wait 'till I get back, find a Heina of my own
Daddy's gonna love one and all
I feel the break, feel the break, feel the break
And I gotta live it up
Oh yeah, uh huh, well I swear that I
Chorus:
All I really wanna know my baby
All I really wanna say I can't define
That love will make it go
My soul will have to...
Solo
Chorus
All I really wanna say my baby
All I really wanna say is I've got mine
And I'll make it yes I'm comin' up
Tell Sanchito that if
Verse 3:
He knows what is good for him he best go run and hide
Daddy's got a new 45
And I won't think twice to stick that barrel straight down Sancho's throat
Believe me when I say that I've got something for his punk ass
Chorus
Well I really wanna know my baby
What I really wanna say is there's just one way back
And I'll make it
yeah my soul will have to wait
Chorus Riff:
 ABEDbm
e-5-------7-----------------------
b---5-------7-----9---------------
g-----6-------8-----9---------6---
d-------7-------9-------9-6-----6-
a---------------------7-----4-----
e---------------------------------



A Ab B Dbm E
variations - click chord images
Transpose chords:
Tuning:
Cool service:
View: Size:
A  A  A
Rating:
Layout:
  • Currently 3.4/5 Stars.
  • 1
  • 2
  • 3
  • 4
  • 5
 
Accuracy:
  • Currently 3.3/5 Stars.
  • 1
  • 2
  • 3
  • 4
  • 5
 
click stars to rate
Chordie recommends:
Learn to play this song & others via video guitar lessons at JamPlay.com
Songbook:
Login to add this song to your songbook
Support the artist
Preview/buy this song
MSN Music
Why this non-profit ad?

 
login to add comments/video/corrections