Guitar Tabs, Chords and Lyrics


Yesterday Is Here  Yes

|-----------------------------5-----|--12-----12------------|---------


|-----------------------7--7-----5--|--12--7------------12--|---------


|-----------------7--7--------------|--12--7------7--5------|---------

|-----------7--7--------------------|--12--7----------------|---------
|--7--7-----------------------------|--12--7----------------|---------
|--------7--------------------------|--12-------------------|--12-----
s e e e e e e q e e e e e e e e q
----------------------------12--|-------------------------------------
--------------------12----------|------------------------------7------
------------12----------12------|-----------------------12--0---------
----12----------12--------------|----------------12--7----------------
12------12----------------------|---------12--7-----------------------
--------------------------------|--12--7------------------------------

e e e e e e e e e e h w w w
5------------------------------------------|--------------------------
------5--7--------7------------------7--5--|--------------------------
---0--------7--5-----------------12--------|--------------------------
---------------------7---------------------|--------------------------
------------------------7--7--7------------|--------------------------
-------------------------------------------|--------------------------

slaE wethE12estHing gsitEr e E e H s E e E e H s
3--------5--------|--3--------5--------|--3--------5--10--12--|--3----
---7--0-----------|-----7--0-----------|-----7--0-------------|-------
------------------|--------------------|--------------7---9---|-------
------------------|--------------4--5--|--------------0-------|-------
------------7--9--|--------------0-----|----------------------|-------
------------0-----|--------------------|----------------------|-------

E e E e e e H s E e E e e q H s E e E e
------5-------------|--3--------5--------------|--3--------5--10------
7--0----------------|-----7--0-----------------|-----7--0-------------
--------------------|--------------------------|--------------7-------
--------------------|--------------5--4--4-----|--------------0-------
---------7--9\5--5--|--------------0--------0--|----------------------
---------0----------|--------------------------|----------------------

H E e e e s s s s E e e e s e e E
12--||---2--2--2--2--r--7--7--r--|--9---9---9---9---r--7--7--7--------
----||---3--3--3--3--e--8--8--e--|--10--10--10--10--e--8--8--8--------
9---||*--2--2--2--2--s--7--7--s--|--9---9---9---9---s--7--7--7--------
----||*--0--0--0--0--t--0--0--t--|--0---0---0---0---t--0--0--0--------
----||---------------------------|------------------------------------
----||---------------------------|------------------------------------

4x w w hlhde Quiter s s Q e e e e e s
-||--r--r--|----------------|--12--10--12--12--15--12--7--3--|--7-----
-||--e--e--|--8/12--12--12--|--------------------------------|--------
*||--s--s--|----------------|--------------------------------|--------
*||--t--t--|----------------|--------------------------------|--------
-||--------|----------------|--------------------------------|--------
-||--------|----------------|--------------------------------|--------

s Q s s Q e q q Q e s s h e e e e
5--7--5--7--------|--14--r--14--14--|--19--17--19--22--19--14--10-----
------------7--3--|------e----------|---------------------------------
------------------|------s----------|---------------------------------
------------------|------t----------|---------------------------------
------------------|-----------------|---------------------------------
------------------|-----------------|---------------------------------

s s Q s s s s Q e H q e
|--14--12--14--12--14-----------------||------r--r--------------------
|----------------------14--12--14\10--||--12--e--e--------------------
|-------------------------------------||------s--s--------------------
|-------------------------------------||------t--t--------------------
|-------------------------------------||------------------------------
|-------------------------------------||------------------------------

slecsricsguisar s s s s s s s s s s s s s
----------------------------------------------------------------------
10--12--12--14--12--14--14--16--14--12--12--14--12--10--14--16--14----
----------------------------------------------------------------------
----------------------------------------------------------------------
----------------------------------------------------------------------
----------------------------------------------------------------------

[s]    [s]    [s]    [s]    [s]       [s]  [s]    [s]    [E]   [s]  [s]   [s]  [s]   [s]  [s]      [s]  [s]   [s]  [s]    [s]                                       
--------------------|------------------------------|------------------
12--12--14--12--10--|--9/10--12--9-----------------|------------------
--------------------|---------------9\8--6/8--6/8--|--9\8--9/11--9----
--------------------|------------------------------|------------------
--------------------|------------------------------|------------------
--------------------|------------------------------|------------------

s t t t t s^ s^ s^ s^ s^ s Q s s s s s
-------------------------------------|--------------------------------
-----9------9--10--9--10--9--10--12--|--12/14--14--16/17--16--14------
/11-----11---------------------------|--------------------------------
-------------------------------------|--------------------------------
-------------------------------------|--------------------------------
-------------------------------------|--------------------------------

s s q s s t t t t t t s t t e h
|------------------------11--12--14--12--11--------------|------------
|--12/14\12--10--12--14----------------------14--12--10--|------------
|--------------------------------------------------------|--13--9-----
|--------------------------------------------------------|------------
|--------------------------------------------------------|------------
|--------------------------------------------------------|------------

q s s s s s s s s h Q q s s s
|--r----------------------------------|--16------r--|-----------------
|--e--12--14--16--12--14--16--17--14--|------17--e--|-----------------
|--s----------------------------------|----------s--|-----------------
|--t----------------------------------|----------t--|------9--11------
|-------------------------------------|-------------|--12-------------
|-------------------------------------|-------------|-----------------

s s s t t t t e t t s s s H h e
------------------------------------------|--------|--r--r--x/--------
------------------------------------------|--------|--e--e------------
------------------------------------------|--------|--s--s------------
--------9---------------------------------|--------|--t--t------------
11--12-----9--11--12--11--9-----7--11--7--|--------|------------------
-----------------------------9------------|--9--7--|------------------

steHl guitwr Q e h q q h q q h q e^
|--24--|--r--|--------------|-------------|-------------|--14---------
|------|--e--|--12--14--12--|--10--8--10--|--8--10--10--|------12-----
|------|--s--|--------------|-------------|-------------|-------------
|------|--t--|--------------|-------------|-------------|-------------
|------|-----|--------------|-------------|-------------|-------------
|------|-----|--------------|-------------|-------------|-------------

e^ e^ h h w s s s s s s s s s s s s q
11--14--14--|--19--|--r--7--10--7-------------------------------------
------------|------|--e------------10--7--10--7-----------------------
------------|------|--s--------------------------9--7--6--------------
------------|------|--t-----------------------------------9--7--------
------------|------|--------------------------------------------9-----
------------|------|--------------------------------------------------

s s s s s e q sheEPreacEere THe TeasheE e E e H
------------------r--|--3--------5--------|--3--------5--------|------
------------------e--|-----7--0-----------|-----7--0-----------|------
------------------s--|--------------------|--------------------|------
7-----------------t--|--------------------|--------------4--5--|------
---9--7--------------|--------------7--9--|--------------0-----|------
---------10\9--7-----|--------------0-----|--------------------|------

s E e E e H s E e E e e e H s E e E s e
3--------5--10--12--|--3--------5-------------|--3--------5-----------
---7--0-------------|-----7--0----------------|-----7--0--------------
------------7---9---|-------------------------|-----------------------
------------0-------|-------------------------|-----------------5-----
--------------------|--------------7--9\5--5--|--------------0--------
--------------------|--------------0----------|-----------------------

q e H s E e E q s s e s s s s e q s s
---------|--3--------5--||------0--0--0--0--0----------|-----0--0-----
---------|-----7--0-----||------0--0--0--0--0----------|-----0--0-----
---------|--------------||*-----4--4--4--4--4----------|-----4--4-----
4--------|--------------||*--2-----------------2h4--4--|--------------
---0--0--|--------------||-----------------------------|--2-----------
---------|--------------||-----------------------------|--------------

e s s s s e q s s s s s e e s s q s s s s
0--0--0----------|-----0--0--0--0--0--0-----0--0--|-----0--0--0--0----
0--0--0----------|-----0--0--0--0--0--0-----0--0--|-----0--0--0--0----
4--4--4----------|-----4--4--4--4--4--4-----4--4--|-----4--4--4--4----
-----------------|--------------------------------|-------------------
---------2h4--4--|-----------------------0--------|--2----------------
-----------------|--4-----------------------------|-------------------

s s s s e 3x
0--0-----------||-----------------------------------------------------
0--0-----------||-----------------------------------------------------
4--4----------*||-----------------------------------------------------
--------------*||-----------------------------------------------------
------2h4--4---||-----------------------------------------------------
---------------||-----------------------------------------------------



======================================================================
== TABLATURE EXPLANATION ==
======================================================================

----------                ----------                ----t---
----5h8--- Hammeron       ----(8)--- Ghost          ----6--- Tap
----------                ---------- Note           --------
----5p8--- Pulloff        ----------                --------
----------                ----------                -----p--
----5/8--- Slide Up       -----x---- Dead           -----7-- Pop
----------                ---------- Note           --s-----
----5\8--- Slide Down     ----------                --5----- Slap
----------                ||------|| Repeat         --------
----5~~~-- Vibrato        ||*----*||                ---5^--- Bend
----------                ||*----*||                --------
----------                ||------||                --------
----------                ----------                --------
-4:------- Time           ----------                --------
-4:------- Signature      ----------                --------
----------                ----------                --------


Rhythm:
w = whole note W = dotted whole
h = half note H = dotted half
q = quarter note Q = dotted quarter
e = eighth note E = dotted eighth
s = sixteenth note S = dotted sixteenth
t = 32nd note T = dotted 32nd
x = 64th note X = dotted 64th
^ = triplet

======================================================================
== Created with TABESTRY Tab Creation Software for Windows ==
== For more info email gse@ocsystems.com ==
======================================================================

Important: The song above is NOT stored on the Chordie server. The original song is hosted at www.geocities.com. Chordie works as a search engine and provides on-the-fly formatting. Chordie does not index songs against artists'/composers' will. To remove this song please click here.

Text color:
Chord color:
Chord grids: 
Font size:    
Page size: 

E
variations - click chord images

Login - add to songbook

Transpose chords

Tuning

Rating click stars to rate

Layout
Accuracy

SHARE PAGE  




You need to log in to post comments