Guitar Tabs, Chords and Lyrics


Yesterday Is Here   Yes


E||---------------------------|---------------------------|
B||---------------------------|---------------------------|
G||--------------------2------|--------------------2------|
D||--2-----2-----2-------0----|--2-----2-----2-------3----|
A||-----3-----3-----3------0--|-----3-----3-----3------3--|
E||--3-----3-----3-----1------|--3-----3-----3-----1------|
---------------------------|-----------------------|---------------------------|
---------------------------|-----------------------|---------------------------|
---------------------------|-----------------------|--------------------2------|
--2-----2-----2-----0------|--2-----2-----2--------|--2-----2-----2-------0----|
-----3-----3-----3----0----|-----3-----3--3--------|-----3-----3-----3------0--|
--3-----3-----3-----1---3--|--3-----3-----3--------|--3-----3-----3-----1------|
---------------------------|---------------------------|
---------------------------|---------------------------|
--------------------2------|---------------------------|
--2-----2-----2-------3----|--2-----2-----2-----3------|
-----3-----3-----3------3--|-----3-----3-----3----3-0--|
--3-----3-----3-----1------|--3-----3-----3-----1------|
---------------------------|---------------------------|
---------------------------|---------------------------|
--------------------2------|---------------------------|
--2-----2-----2-------3----|--2-----2-----2-----0------|
-----3-----3--3--3------3--|-----3-----3-----3----0----|
--3-----3-----3-----1------|--3-----3-----3-----1---3--|
---------------------------|---------------------------|
---------------------------|---------------------------|
--------------------2------|---------------------------|
--2-----2-----2-------3----|--2-----2-----2-----0------|
-----3-----3-----3------3--|-----3-----3-----3----0----|
--3-----3-----3-----1------|--3-----3-----3---------3--|
--------------------------|--1--1--1--1-----------------|
--------------------------|--3--3--3--3-----------------|
--------------------------|--2--2--2--2---------------0-|
--2-----2-----2-----2-----|--0--0--0--0---------0-2-3---|
-----3-----3-----3-----3--|-----------------0-3---------|
--3-----3-----3-----3-----|-----------------------------|
-----1--1--1-----------------|-----1--1--1-------0-1-3-5/-|
-----3--3--3---------------1-|--3--3--3--3-----3----------|
--2--2--2--2-----------0-2---|-----2--2--2----------------|
-----0--0--0-----0-2-3-------|-----0--0--0----------------|
-----------------------------|----------------------------|
-----------------------------|----------------------------|
--10--------8--------5-----|--------------5--------|---------------------------|
------------------5--------|--------6-----6--------|---------------------------|
---------------------------|--7-----7-----7--------|--0-----0-----0-----2------|
------------5--------------|-----------------------|-----2-----2-----2----0----|
------5--5-----5-----5--5--|-----5-----5-----------|------------------------0--|
---------------------------|-----------------------|--3-----3-----3-----1------|
---------------------------|---------------------------|
---------------------------|---------------------------|
--0-----0-----0-----2------|---------------------------|
-----2-----2-----2----3----|--2-----2-----2-----3------|
------------------------3--|-----3-----3-----3----3-0--|
--3-----3-----3-----1------|--3-----3-----3-----1------|
----------------------------|---------------------------|
----------------------------|---------------------------|
--------------------2-2-0---|--------------------2------|
--2-----2-----2-----------0-|--2-----2-----2-------0----|
-----3-----3-----3----------|-----3-----3-----3------0--|
--3-----3-----3-----1-------|--3-----3-----3-----1------|
---------------------------|---------------------------|
---------------------------|---------------------------|
--------------------2------|---------------------------|
--2-----2-----2-------3----|--2-----2-----2-----0------|
-----3-----3-----3------3--|-----3-----3-----3----0----|
--3-----3-----3-----1------|--3-----3-----3-----1---3--|
--------------------------|--1--1--1--1-----------------|
--------------------------|--3--3--3--3-----------------|
--------------------------|--2--2--2--2---------------0-|
--2-----2-----2-----2-----|--0--0--0--0---------0-2-3---|
-----3-----3-----3-----3--|-----------------0-3---------|
--3-----3-----3-----3-----|-----------------------------|
-----1--1--1----1--1--1--|-------0---1--0------------------|
-----3--3--3----3--3--3--|-----3-----------3--1------------|
--2----------------------|-----------------------2-3--2--0-|
-----0--0--0----0--0--0--|---------------------------------|
-----------0-------------|--1-----------0------------------|
-------------------------|-------------------------3-------|
-----------------------0--1--|--5--3--0----6--5--3-----3-----|
---------------------3-------|-----------1----------6--------|
------2--2--0--0-------------|-------------------------------|
---3-------------------------|-------------------------------|
------------------1----------|--0----------------------3--3--|
------1--1--0--0-------------|-------------3-----------------|
--------------------------|----------------------0--0--|
--6-----5-----3-----5-----|--------------------0----0--|
--------------------------|------------------2------0--|
--------------------------|----------------3-----------|
--3--3--3--3--3--3--3--3--|--3--3--3-----3----------3--|
--------------------------|-----------0-------------3--|
--0--0--0-------------0--0--|--0--0--0-------------0--0--|
--0--0--0-----------0----0--|--0--0--0-----------0----0--|
--0--0--0---------2------0--|--0--0--0---------2------0--|
----------------3-----------|----------------3-----------|
--3--3--3-----3----------3--|--3--3--3-----3----------3--|
--3--3--3--0-------------3--|--3--3--3--0-------------3--|
--0--0--0-------------0--0--|--0--0--0-----5--5--3--------|
--0--0--0-----------0----0--|--0--0--0-------------5------|
--0--0--0---------2------0--|--0--0--0--------------------|
----------------3-----------|-----------------------------|
--3--3--3-----3----------3--|--3--3--3-------------3----2-|
--3--3--3--0-------------3--|--3--3--3--1-----------------|
--------------5--5--3---------|---------------5--5--3---------|
-----------------------5--5-3-|---3-5--5-3-------------5--5-3-|
-----------------------5--5-4-|---4-5--5-4-------------5--5-4-|
-----------------------5--5-5-|---5-7--7-5-------------5--5-5-|
-----------------------7--7-5-|---5-7--7-5-------------7--7-5-|
-----5----3------------8--8-7-|---7-5--5-3--1----------8--8-7-|
---------------8-8-5---------|---------------------------0-----|
---3-5--5-3----------6--8----|--5---------------3--1--3--1--1--|
---4-5--5-4------------------|-------5-------------------0-----|
---5-7--7-5--0---------------|----------7--7-------------2-----|
---5-7--7-5------------------|---------------------------3-----|
---7-5--5-3-------------8----|--7----5-------1-----------3-----|
-------------------------|---------------------------|
-------------------------|---------------------------|
--0----0----2------------|--------------2------------|
---------------0---2-----|--2-----2--------0---2-----|
--3----3---------0----3--|-----3-----3-------0----3--|
------------1------3-----|--3-----3-----1------3-----|
---------------------------|--------------5-5-3-------|----------------------|
---------------------------|---------------------5----|--1-------------------|
--------------2------------|--------------------------|-------0--------------|
--2-----2--------3---2-----|--2-----2-----3---2-------|------------2---------|
-----3-----3-------3----3--|-----3-----3---------3----|-----------------3----|
--3-----3-----1------3-----|--3-----3-----------------|----------------------|
------------------||
------------------||
------------------||
------------------||
------------------||
------------------||


Important: The song above is NOT stored on the Chordie server. The original song is hosted at www.geocities.com. Chordie works as a search engine and provides on-the-fly formatting. Chordie does not index songs against artists'/composers' will. To remove this song please click here.

This song is displayed as text-only. Transposing and tuning is only available for chordpro-songs.

Login - add to songbook

Rating click stars to rate

Layout
Accuracy

SHARE PAGE  




You need to log in to post comments