Guitar Tabs, Chords and Lyrics


Yesterday Is Here   Yes


E||--20----20----20----20----|--8----8----8----8----|----------------------|
B||--------------------------|----------------------|--1----1----1----1----|
G||--------------------------|----------------------|----------------------|
D||--------------------------|----------------------|----------------------|
A||--------------------------|----------------------|----------------------|
E||--------------------------|----------------------|----------------------|
-----------------------|----------------------|-----------------------|
-------1----0----------|----------------------|-------1----0----------|
---------------0-------|--2-------------------|---------------0-------|
-----------------------|-------2---------2----|------------2----------|
--3----3----3-----3----|--0-------------------|--0----3----------3----|
-----------------------|------------0---------|-----------------------|
-----------------------|-------0---------------|----------------------|
-------1----0----------|------------3--0-------|--1-------------------|
--2------------0-------|--2--------------------|----------------------|
------------2----------|------------3-----2----|-------2---------2----|
--0----3----------3----|--0----0---------------|--0-------------------|
-----------------------|-----------------------|------------0---------|
-------0---------------|-------0---------------|-------5----3----------|
--1---------3--0-------|--1---------3--0-------|--1------------4b------|
-----------------------|-----------------------|-----------------------|
------------2----------|-------2----------2----|-----------------------|
--0----3----------3----|--0---------3----------|--0----0----0-----3----|
-----------------------|-----------------------|-----------------------|
--0-------------------|-------5----3----------|--0----5----3----------|
----------------------|---------------4b------|---------------4b------|
----------------------|-----------------------|-----------------------|
-------2---------2----|-----------------------|-----------------------|
--0-------------------|--3----0----0-----0----|--0----0----0-----0----|
------------0---------|-----------------------|-----------------------|
--0----5----3-----------|--4---------5--7-------|--7--------------------|
---------------4r----4--|-----------------------|---------------4-------|
------------------------|-----------------------|-----------------------|
------------------------|-------6----------6----|-----------------------|
--0----0----0-----0-----|--7---------4----------|-------6----------6----|
------------------------|-----------------------|--7---------7----------|
-----------------------|--0-------2-----3-------|--3-------------------|
--5------------5-------|------------------------|------------0---------|
-----------------------|-------0-----------0----|-------0--------------|
-------6----------6----|------------------------|-----------------0----|
--4--------------------|--3----------3----------|--3-------------------|
------------4----------|------------------------|------------3---------|
-----------------------|-----------------------|----------------------|
--1------------1-------|-------1----0----------|----------------------|
-----------------------|---------------0-------|--2-------------------|
-------2---------------|-----------------------|-------2---------2----|
--0---------------0----|--0----3----3-----3----|--0-------------------|
------------0----------|-----------------------|------------0---------|
-------0---------------|-------5----3----------|
------------3--0-------|--1------------4b------|
-----------------------|-----------------------|
------------2----------|-----------------------|
--0----3----------3----|--0----3----3-----3----|
-----------------------|-----------------------|
--0----8p-5p-0--------------------|--4---------5--7-------|
----------------8p-6p-0-----------|-----------------------|
-------------------------7p-5p-0--|-----------------------|
----------------------------------|-------6----------6----|
--0-------------------------------|--7---------7----------|
----------------------------------|-----------------------|
--7--------------------|--12----9----------9--------|
---------------4-------|------------12--------------|
-----------------------|----------------------------|
-----------------------|----------------------------|
-------6----------6----|--------11------------11----|
--7---------7----------|--9-------------9-----------|
------------------------------|---------------------------|
------------------------------|------------------8--------|
--11h-13--11p-9--11--9--------|--9--------11--------------|
------------------------11----|---------------------------|
----------11------------11----|-------10------------10----|
--9--------------9------------|--8------------8-----------|
------------------------|-----------------------|
--8---------------------|-----------------------|
---------------7--------|--5------------5-------|
-------9----------------|-----------------------|
------------------10----|-------7----------7----|
--7---------7-----------|--5---------5----------|
-------8p-5p-0--------------------|----------------------|
----------------8p-6p-0-----------|----------------------|
-------------------------7p-5p-0--|----------------------|
----------------------------------|--7----7---------7----|
----------------------------------|----------------------|
--5-------------------------------|--5---------5---------|
-------8p-5p-0--------------------|--------3--------------|
----------------8p-6p-0-----------|--3/-6-----------------|
-------------------------7p-5p-0--|-----------------------|
----------------------------------|--------2---------2----|
--7-------------------------------|--0----------0---------|
--5-------------------------------|-----------------------|
-------8p-5p-0--------------------|----------------------|
----------------8p-6p-0-----------|----------------------|
-------------------------7p-5p-0--|----------------------|
--2-------------------------------|--7----7---------7----|
--0-------------------------------|----------------------|
----------------------------------|--5---------5---------|
-------8p-5p-0--------------------|--8p-5p-0--------------------8p-5p-0--|
----------------8p-6p-0-----------|-----------8p-6p-0--------------------|
-------------------------7p-5p-0--|--------------------7p-5p-0-----------|
--2-------------------------------|--------------------------------------|
--0-------------------------------|--------------------------------------|
----------------------------------|--------------------------------------|
--------------------8p-5p-0-----------|--9---------10--12-------|
--8p-6p-0--------------------8p-6p-0--|-------------------------|
-----------7p-5p-0--------------------|-------------------------|
--------------------------------------|-------7------------7----|
--------------------------------------|--0---------8------------|
--------------------------------------|-------------------------|
--12-----------------------|--------------------------|
------------------9--------|--10-------------10-------|
---------------------------|--------------------------|
---------------------------|--------11----------------|
--------11-----------11----|--9------------------9----|
--12----------12-----------|--------------9-----------|
-------------------8--------|--8----------------------|
--10--------12--------------|-------------------------|
----------------------------|----------------9--------|
--------10------------10----|-------------------------|
--8-------------8-----------|-------10----------10----|
----------------------------|--8----------8-----------|
--------------------------|--------------------------------------------|
--------------------------|--------13h15p13p10-13h15p13p10-------------|
--10----------------------|--------------------------------12h14p12p10-|
--------------------------|--------------------------------------------|
--------12----------12----|--------------------------------------------|
--10----------10----------|--10----------------------------------------|
--------10------------|------------------------------|
----------------------|--------5-6p5---6-8p6-8h9-8-8-|
--12b-----------------|------7-------9---------------|
----------------------|------------------------------|
----------------------|------------------------------|
----------------------|------------------------------|
--------------------------------|--------------------------------------|
--10h11----10-11-13-13r---------|------13h15p13p10-13h15p13p10-13--10--|
--------12----------------------|--------------------------------------|
--------------------------------|--------------------------------------|
--------------------------------|--------------------------------------|
--------------------------------|--------------------------------------|
--------10------------|--15r-------13----------|
--13b-----------------|----------------15------|
----------------------|------------------------|
----------------------|------------------------|
----------------------|------------------------|
----------------------|------------------------|
--16----15----13----10/-13\-10----|--8/-10\-8----------------|
----------------------------------|--------------8/-10\-8----|
--13----12----10----7/--10\-7-----|--5/-7\--5----------------|
----------------------------------|--------------5/-7\--5----|
----------------------------------|--------------------------|
----------------------------------|--------------------------|
--2---------3--5-------|--5--------------------|----------------------|
-----------------------|---------------2-------|--3-------------------|
-----------------------|-----------------------|----------------------|
-------4----------4----|-------2----------2----|-------4---------4----|
--5--------------------|--0---------0----------|--2-------------------|
------------5----------|-----------------------|------------2---------|
----------0-----1-------|--1--------------------|----------------------|
--3---------------------|-----------------------|----------------------|
------------------------|---------------2-------|--3-------------------|
-------3-----------3----|-------3---------------|-------5---------5----|
--1---------------------|------------------3----|--5---------5---------|
-------------1----------|--1---------1----------|----------------------|
-------------------------------|---------------------------------|
-------------------------------|---------------------------------|
-------6p5p3p0-6p5p3p0-6p5p3p0-|--6p5p3p0------------------------|
--5----------------------------|----------5--3--0----------------|
--5----------------------------|-------------------5--3--1-------|
-------------------------------|----------------------------3----|
-------------------------|-------6----5--1------|--3----6----5--1------|
-------3-----------3-----|--3----6----5--1------|--3----6----5--1------|
-------3--5/-7--5--3--5--|--3----0----0--0------|--0----0----0--0------|
----5--------------------|-------8----7--3------|--5----8----7--3------|
-------------------------|----------------------|----------------------|
-------------------------|----------------------|----------------------|
------------------------------------|---------15--15--15--15--15--15--|
------------------------------------|---------------------------------|
--6p5p3p0-6p5p3p0-------------------|---------15--17--18--17--15--17--|
------------------5p-3p-0-----------|-----17--------------------------|
---------------------------5p-3p-1--|---------------------------------|
------------------------------------|--3------------------------------|
--15----6----5--1------|--3----6----5--1------|--3----13----12--8------|
--------6----5--1------|--3----6----5--1------|--3----13----12--8------|
--15----0----0--0------|--0----0----0--0------|--0----10----9---5------|
--------8----7--3------|--5----8----7--3------|--5---------------------|
-----------------------|----------------------|------------------------|
-----------------------|----------------------|------------------------|
--7----------8---10-------|--10--------------------|----------------------|
--------------------------|-------------7----------|--8-------------------|
--------------------------|------------------------|----------------------|
--------9------------9----|------------------------|-------9---------9----|
--10---------10-----------|--------9----------9----|--7-------------------|
--------------------------|--10---------10---------|------------7---------|
-----------------6-------|--6-------------------|------------------------|
--8-------10-------------|----------------------|------------------------|
-------------------------|------------7---------|--8---------------------|
-------8------------8----|----------------------|------------------10----|
--6----------------------|-------8---------8----|-------10---------------|
--------------6----------|--6---------6---------|--8----------8----------|
------------------------------|--------------------------|
--------8--8--11b-13--13--13--|--13p-11--8------8~-------|
------------------------------|-------------10-----------|
------------------------------|--------------------------|
--10--------------------------|--------------------------|
------------------------------|--------------------------|
------------------------13--|------12p-11--10\-------|
----13r-----11--------------|------------------------|
----------------12--11------|------------------------|
----------------------------|------------------------|
----------------------------|------------------------|
----------------------------|------------------------|
--------15--14--13------------|--18----17--15--17--15------|
----13--------------16b-13----|----------------------------|
------------------------------|----------------------------|
------------------------------|----------------------------|
------------------------------|----------------------------|
------------------------------|----------------------------|
------15--17~-----18~---|----------------18r-|------------------|
------------------------|--------------------|------------------|
------------------------|--------------------|------------------|
------------------------|--------------------|------------------|
------------------------|--------------------|------------------|
------------------------|--------------------|------------------|
--20----20----20----20----|--8----8----8----8----|----------------------|
--------------------------|----------------------|--1----1----1----1----|
--------------------------|----------------------|----------------------|
--------------------------|----------------------|----------------------|
--------------------------|----------------------|----------------------|
--------------------------|----------------------|----------------------|
-----------------------|----------------------|-----------------------|
-------1----0----------|----------------------|-------1----0----------|
---------------0-------|--2-------------------|---------------0-------|
-----------------------|-------2---------2----|-----------------------|
--3----3----3-----3----|--0-------------------|--0----3----3-----3----|
-----------------------|------------0---------|-----------------------|
-------0---------------|-------0---------------|----------------------|
------------3--0-------|--1---------3--0-------|--1-------------------|
--2--------------------|-----------------------|----------------------|
------------2----------|-------2---------------|-------2---------2----|
--0----3----------3----|--0---------3-----3----|--0-------------------|
-----------------------|-----------------------|------------0---------|
-------5----3----------|--0----5----3----------|--0----5----3-----------|
---------------4b------|---------------4b------|---------------4r----4--|
-----------------------|-----------------------|------------------------|
-----------------------|-----------------------|------------------------|
--0----3----3-----3----|--0----3----3-----3----|--0----3----0-----3-----|
-----------------------|-----------------------|------------------------|
----------------------------|--7--------------------|
--9-----------10--12--------|-----------------------|
----------------------------|---------------9-------|
----------------------------|-----------------------|
--------11------------11----|-------9----------9----|
--12----------12------------|--7---------7----------|
--9---------------9--------|-------------------------------|
-------9---12b-------------|-------------------------------|
---------------------------|--11/-12--11--9--11--9---------|
---------------------------|------------------------11--9--|
-------11------------11----|-------------------------------|
--9------------9-----------|-------------------------------|
---------------------------|-------------------------|-----------------------|
------------------8--------|--8----------------------|---------------5-------|
--9--------11--------------|----------------7--------|--5--------------------|
---------------------------|-------------------------|------------------7----|
-------10------------10----|-------10----------10----|-------7---------------|
--8------------8-----------|--7----------7-----------|--5---------5----------|
-------8p-5p-0--------------------|--8\------------------|
----------------8p-6p-0-----------|--8\------------------|
-------------------------7p-5p-0--|--9\------------------|
----------------------------------|-------7---------7----|
--7-------------------------------|--7---------0---------|
----------------------------------|----------------------|
-------8p-5p-0--------------------|-----------------------|
----------------8p-6p-0-----------|--------8--------------|
-------------------------7p-5p-0--|--7/-8-----------------|
----------------------------------|--------7---------7----|
--7-------------------------------|--7----------0---------|
----------------------------------|-----------------------|
-------8p-5p-0--------------------|--8-------------------|
----------------8p-6p-0-----------|--8-------------------|
-------------------------7p-5p-0--|--9-------------------|
--7-------------------------------|-------7---------7----|
--5-------------------------------|--7---------0---------|
----------------------------------|----------------------|
-------8p-5p-0--------------------|--8p-5p-0--------------------8p-5p-0--|
----------------8p-6p-0-----------|-----------8p-6p-0--------------------|
-------------------------7p-5p-0--|--------------------7p-5p-0-----------|
----------------------------------|--------------------------------------|
--0-------------------------------|--------------------------------------|
----------------------------------|--------------------------------------|
--------------------8p-5p-0-----------|--------------------------|
--8p-6p-0--------------------8p-6p-0--|-----------1----0---------|
-----------7p-5p-0--------------------|--7p-5p-0----------0------|
--------------------------------------|--------------------------|
--------------------------------------|-----------3----2---------|
--------------------------------------|-------------------3------|
-------------------||
-------------------||
--2----------------||
--2----------------||
--0----------------||
-------------------||


Important: The song above is NOT stored on the Chordie server. The original song is hosted at www.geocities.com. Chordie works as a search engine and provides on-the-fly formatting. Chordie does not index songs against artists'/composers' will. To remove this song please click here.

This song is displayed as text-only. Transposing and tuning is only available for chordpro-songs.

Login - add to songbook

Rating click stars to rate

Layout
Accuracy

SHARE PAGE  




You need to log in to post comments