Guitar Tabs, Chords and Lyrics


Yesterday Is Here   Yes


||-------4--6--2--4--r-----|----------||------4--6--2-----2--|--------








||-------4--6--2--4--e--6--|------6---||------4--6--2--6--2--|--------








||*--6:--5--6--3--5--s--6--|--4:--6--*||--6:--5--6--3--6--3--|--4:----



||*--4:--6--8--4--6--t--6--|--4:--6--*||--4:--6--8--4--6--4--|--4:----



||-------6--8--4--6-----4--|------4---||------6--8--4--4--4--|--------



||-------4--6--2--4--------|----------||------4--6--2--------|--------





                                    


w     e  e  e  e  e  e  e  e     e  e  e  e  e  e  e  e     e  e


                                                                                                                                                                                     


2--|--r-----------r-----------|--r-----------r-----------|--r---------
2--|--e--------6--e--------4--|--e--------2--e--------4--|--e---------
3--|--s-----6-----s-----5-----|--s-----3-----s-----5-----|--s---------
4--|--t--6--------t--6--------|--t--4--------t--6--------|--t--6------
4--|--------------------------|--------------------------|------------
---|--------------------------|--------------------------|------------





                                    


e  e  e  e  e  e     e  e  e  e  e  e  e  e     e  e  e  e  e  e


                                                                                                                                                                                     


------r-----------|--r-----------r-----------|--r--------4--r---------
---6--e--------4--|--e--------6--e--------7--|--e-----6-----e---------
6-----s-----5-----|--s-----6-----s-----6-----|--s--6--------s--5------
------t--6--------|--t--8--------t--8--------|--t-----------t---------
------------------|--------------------------|------------------------
------------------|--------------------------|------------------------





                                    


e  e     e  e  e  e  e  e  e  e          Q  Q  Q  e  e  e


                                                                                                                                                                                     


---4--|--r-----------r--------r--|--||---4--6--2--4--r-----|----------
4-----|--e--------6--e--------e--|--||---4--6--2--4--e--6--|----------
------|--s-----6-----s-----6--s--|--||*--5--6--3--5--s--6--|--4:------
------|--t--8--------t--8-----t--|--||*--6--8--4--6--t--6--|--4:------
------|--------------------------|--||---6--8--4--6-----4--|----------
------|--------------------------|--||---4--6--2--4--------|----------





                                    


w   4x  e  e  e  e  e  e  e  e     e  e  e  e  e  e  e  e     e  e


                                                                                                                                                                                     


----||--r-----------r-----------|--r-----------r-----------|--r-------
6---||--e--------6--e--------4--|--e--------2--e--------4--|--e-------
6--*||--s-----6-----s-----5-----|--s-----3-----s-----5-----|--s-------
6--*||--t--6--------t--6--------|--t--4--------t--6--------|--t--6----
4---||--------------------------|--------------------------|----------
----||--------------------------|--------------------------|----------





                                    


e  e  e  e  e  e     e  e  e  e  e  e  e  e     e  e  e  e  e  e


                                                                                                                                                                                     


------r-----------|--r-----------r-----------|--r--------4--r---------
---6--e--------4--|--e--------6--e--------7--|--e-----6-----e---------
6-----s-----5-----|--s-----6-----s-----6-----|--s--6--------s--5------
------t--6--------|--t--8--------t--8--------|--t-----------t---------
------------------|--------------------------|------------------------
------------------|--------------------------|------------------------





                                    


e  e     e  e  e  e  e  e  e  e     e    q   q   q  e     e q   q


                                                                                                                                                                                     


---4--|--r-----------r--------r--|--11^--12--11--9--8--|--8/11--9-----
4-----|--e--------6--e--------e--|---------------------|--------------
------|--s-----6-----s-----6--s--|---------------------|--------------
------|--t--8--------t--8-----t--|---------------------|--------------
------|--------------------------|---------------------|--------------
------|--------------------------|---------------------|--------------





                                    


E     e q   e h     Q  e h    w      e  toeet  e  toeet  e  e    w


                                                                                                                                                                                     


8--|--8/11--9h9--|--9------|------|--r------------------------|-------
---|-------------|---------|------|--e--4h5p4--2--------------|-------
---|-------------|---------|------|--s------------3h4p3--1--3h|--3----
---|-------------|---------|------|--t------------------------|-------
---|-------------|-----3h3/|--11--|---------------------------|-------
---|-------------|---------|------|---------------------------|-------





                                    


   h  h    w      e  toeet  e  toeet  e  e    h  h     h  h    w


                                                                                                                                                                                     


|--r----|------|--r------------------------|-----r--|--r----|---------
|--e----|------|--e--4h5p4--2--------------|-----e--|--e----|---------
|--s----|------|--s------------3h4p3--1----|-----s--|--s----|---------
|--t----|------|--t----------------------4h|--4--t--|--t----|---------
|-----1/|--11--|---------------------------|--------|-----1/|--11-----
|-------|------|---------------------------|--------|-------|---------





                                    


   e  toeet  e  toeet  e  e  e    w     e  e  e  e  e  e  q


                                                                                                                                                                                     


|--r-------------------------2h|--2--|--2--2--2--2--2--------|--------
|--e--4h5p4--2---------------2-|--2--|--2--2--2--2--2--------|--------
|--s------------3h4p3--1-----3-|--3--|--3--3--3--3--3--------|--------
|--t----------------------4--4-|--4--|--4--4--4--4--4--------|--------
|----------------------------4-|--4--|--------------------9--|--------
|----------------------------2-|--2--|-----------------9-----|--------





                                    


         Q  Q  Q  e  e  e         w   3x      Q  Q  Q  q  e


                                                                                                                                                                                     


||-------4--6--2--4--r-----|----------||------4--6--2-----2--|--------
||-------4--6--2--4--e--6--|------6---||------4--6--2--6--2--|--------
||*--6:--5--6--3--5--s--6--|--4:--6--*||--6:--5--6--3--6--3--|--4:----
||*--4:--6--8--4--6--t--6--|--4:--6--*||--4:--6--8--4--6--4--|--4:----
||-------6--8--4--6-----4--|------4---||------6--8--4--4--4--|--------
||-------4--6--2--4--------|----------||------4--6--2--------|--------





                                    


w     e  e  e  e  e  e  e  e     e  e  e  e  e  e  e  e     e  e


                                                                                                                                                                                    


2--|--r-----------r-----------|--r-----------r-----------|--r---------
2--|--e--------6--e--------4--|--e--------2--e--------4--|--e---------
3--|--s-----6-----s-----5-----|--s-----3-----s-----5-----|--s---------
4--|--t--6--------t--6--------|--t--4--------t--6--------|--t--6------
4--|--------------------------|--------------------------|------------
---|--------------------------|--------------------------|------------





                                    


e  e  e  e  e  e     e  e  e  e  e  e  e  e     e  e  e  e  e  e


                                                                                                                                                                                    


------r-----------|--r-----------r-----------|--r--------4--r---------
---6--e--------4--|--e--------6--e--------7--|--e-----6-----e---------
6-----s-----5-----|--s-----6-----s-----6-----|--s--6--------s--8------
------t--6--------|--t--8--------t--8--------|--t-----------t---------
------------------|--------------------------|------------------------
------------------|--------------------------|------------------------





                                    


e  e     e  e   e   e  e  e   e   e     e  e  e  e h     e  e   e


                                                                                                                                                                                    


---8--|--r----------9--r----------r--|-----------4h4--|--r------------
9-----|--e------11-----e------11--e--|--------4-------|--e------16----
------|--s--10---------s--11------s--|-----6----------|--s--17--------
------|--t-------------t----------t--|--6-------------|--t------------
------|------------------------------|----------------|---------------
------|------------------------------|----------------|---------------





                                    


e   h      e e   e  e  e e   e  e     e e  e  e  e e   e  e     e


                                                                                                                                                                                    


18--16--|-----------9--------------|-------------------------|--------
--------|--------9-----------------|----------7--------------|--------
--------|--8/10--------------8-----|-------6-----------8-----|--8-----
--------|--------------8/10-----6--|--6/8--------8/10-----6--|--------
--------|--------------------------|-------------------------|--------
--------|--------------------------|-------------------------|--------





                                    


 e   e  e  e e   e  e     e e  e  e  e  e   e   e      e  e   e


                                                                                                                                                                                    


--------9--------------|------------------------14--|-----------------
-----9-----------------|-------6------------14------|-----------------
/10--------------8-----|--5/6--------13/15----------|---------13------
-----------8/10-----6--|----------8-----------------|--13/15----------
-----------------------|----------------------------|-----------------
-----------------------|----------------------------|-----------------





                                    


e   e  e   e   e      e  e   e   e   e e   q     e  Q  e   t  e


                                                                                                                                                                                    


-------------------|-----------------------9--|--9--11h11--11h12------
14-------------13--|-------------11--9h11-----|-----------------------
-----------13------|---------10---------------|-----------------------
----11/13----------|--10/11-------------------|-----------------------
-------------------|--------------------------|-----------------------
-------------------|--------------------------|-----------------------





                                    


 e      e  Q q  s s s      e q   e h        Q     e h        e  e


                                                                                                                                                                                    


p11--|--9--8h8--8h9h11--|--8/11--9h9~~~--|--9~~~--8h8~~~--|--r--------
-----|------------------|----------------|----------------|--e--------
-----|------------------|----------------|----------------|--s--------
-----|------------------|----------------|----------------|--t--3-----
-----|------------------|----------------|----------------|-----------
-----|------------------|----------------|----------------|-----------





                                    


e  e  e  e  e  e     h  s  s  s  s  s  s  e     s  s  e q  e  s  s


                                                                                                                                                                                    


---------------r--|-----------r-----r--------|------------------------
---------------e--|-----------e-----e--------|------------------------
---------------s--|-----------s-----s--------|----------------8-------
1--------------t--|-----------t--6--t--------|-----6--8h8--6-----6----
---4--3--1--------|--8--8--9-----------9--6--|--9---------------------
------------4-----|--------------------------|------------------------





                                    


e  s  s     e  s  s  E  s  e  s  s e  e     s s  e e  e  s  e e


                                                                                                                                                                                    


---------|--------------------r----------|----------------------|-----
---------|--------------------e----------|----------------------|-----
---8-----|-----6--------------s----------|------------6-----6h6h|-----
6-----6--|--------------------t----------|-------8h8-----8------|-----
---------|--9-----9--8--6--9-----8h8--6--|--6h8-----------------|-----
---------|-------------------------------|----------------------|-----





                                    


e  s  s e  s s e  e     e  s  s  s q  s s e q     e e  e e  e e  e


                                                                                                                                                                                    


---------------------|--r----------------------|----------------------
---------------------|--e--------6h6-----------|----------------------
6-----6h8--6h8p6--8--|--s--6--8-------6\5\3h3--|--3/6--6\5--5/8--8----
---8-----------------|--t----------------------|----------------------
---------------------|-------------------------|----------------------
---------------------|-------------------------|----------------------





                                    


 e     e e  e e  e s  s  s s e     s   s   s   s   q   q   E  s


                                                                                                                                                                                    


----|---------------------------|--------------13---------------------
----|--------------------6h7h9--|----------14------16--14--13h14------
\5--|--5h6--5h6--5h6--8---------|------13-----------------------------
----|---------------------------|--15---------------------------------
----|---------------------------|-------------------------------------
----|---------------------------|-------------------------------------





                                    


 e   e      q   e   e  e  s  s  e   e      e   s  s   s  h   e  e


                                                                                                                                                                                    


---------|------------------------------|--------------------r--------
p13------|------------------------------|--------------------e--4-----
-----15--|--15--13--13h13h15p13h13------|-------------13h13--s--------
---------|--------------------------16--|--16--13h15---------t--------
---------|------------------------------|-----------------------------
---------|------------------------------|-----------------------------





                                    


    E s e  e e  e q     Q  e h     e  e e  e  e e  e     h  e  e


                                                                                                                                                                                    


-|-------------------|----------|--8-------6-------6--|-----r---------
h|--6p4h6--7p6--7/9--|--9-------|---------------------|-----e---------
-|-------------------|-----8h9--|-----9p8-----8h9-----|--8--s--7------
-|-------------------|----------|---------------------|-----t---------
-|-------------------|----------|---------------------|---------------
-|-------------------|----------|---------------------|---------------





                                    


s  s  e     e  e e e^e^e^ e  s s s  s  e         Q  Q  Q  e  e  e


                                                                                                                                                                                    


r-----r--|----------------r---------------|------4--6--2--4--r--------
e-----e--|--7-------------e---------------|------4--6--2--4--e--6-----
s--7--s--|----------------s---------------|--6:--5--6--3--5--s--6-----
t-----t--|-----6\5/6\5/6--t--4h6p4-----4--|--4:--6--8--4--6--t--6-----
---------|--------------------------6-----|------6--8--4--6-----4-----
---------|--------------------------------|------4--6--2--4-----------





                                    


       w         Q  Q  Q  e  e         w


                                                                                                                                                                                    


|---------|------4--6--2--4--r--|---------||--------------------------
|------6--|------4--6--2--4--e--|------6--||--------------------------
|--4:--6--|--6:--5--6--3--5--s--|--4:--6--||--------------------------
|--4:--6--|--4:--6--8--4--6--t--|--4:--6--||--------------------------
|------4--|------6--8--4--6-----|------4--||--------------------------
|---------|------4--6--2--4-----|---------||--------------------------



Important: The song above is NOT stored on the Chordie server. The original song is hosted at www.geocities.com. Chordie works as a search engine and provides on-the-fly formatting. Chordie does not index songs against artists'/composers' will. To remove this song please click here.

This song is displayed as text-only. Transposing and tuning is only available for chordpro-songs.

Login - add to songbook

Rating click stars to rate

Layout
Accuracy

SHARE PAGE  




You need to log in to post comments