Guitar Tabs, Chords and Lyrics


Yesterday Is Here   Yes


E||--------------------------|------------------------------|
B||--------------------------|------------------------------|
G||--------------------------|--------------------------10--|
D||--------------------------|----------------------12------|
A||--------------------------|------------------------------|
E||--------------------------|------------------------------|
-------------------------------------|----------------------------------|
-------------------------------------|----------------------------------|
--12r---12--12----10~---------9--10--|--10b---10\-4r---4r---------------|
-------------------------------------|----------------------------5--3--|
-------------------------------------|----------------------------------|
-------------------------------------|----------------------------------|
-------------------------------------|-------------------------12b-------------|
-----------------------------12--10--|----10-----------10----------------------|
-----5r-5~-------------------12--10--|----10h12p10-----10----------------------|
-------------5--3--5h7~--------------|-------------12------12------------------|
--5----------------------------------|-----------------------------------------|
-------------------------------------|-----------------------------------------|
--------15------------13------|--------10------------10------|
--------13------------13------|--------8---------------------|
------------------------------|----------------------10------|
------------------------------|------------------------------|
------------------------------|------------------------------|
------------------------------|------------------------------|
--------15------------13------|--------8------------10--10--10--|
--------13------------13------|--------8------------8---8---8---|
------------------------------|---------------------7---7---7---|
------------------------------|---------------------------------|
------------------------------|---------------------------------|
------------------------------|---------------------------------|
--------15------------13------|--------8------------3------|
--------13------------13------|--------8------------3------|
------------------------------|----------------------------|
------------------------------|----------------------------|
------------------------------|----------------------------|
------------------------------|----------------------------|
--------15------------13------|--------13------------10\-----|
--------13------------13------|--------13------------10\-----|
------------------------------|------------------------------|
------------------------------|------------------------------|
------------------------------|------------------------------|
------------------------------|------------------------------|
-----------------------------------|-----------------------------|
-----------5-----4~-------4-----3~-|--------3--------------------|
-----------5-----4~-------4-----3~-|--------3-----2~-------------|
-----------5-----4~-------4-----3~-|--------3-----2~-------------|
--0--0--0-----0--------------0-----|-----------0-----------------|
-----------------------------------|-----------------------------|
---------------------------------|-----------------------------|
---------5-----4~-------4-----3~-|--------3--------------------|
---------5-----4~-------4-----3~-|--------3-----2~-------------|
---------5-----4~-------4-----3~-|--------3-----2~-------------|
------0-----0--------------0-----|-----------0-----------------|
---------------------------------|-----------------------------|
--------15------------13------|--------10------------10------|
--------13------------13------|--------8---------------------|
------------------------------|----------------------10------|
------------------------------|------------------------------|
------------------------------|------------------------------|
------------------------------|------------------------------|
--------15------------13------|--------8------------10--10--10--|
--------13------------13------|--------8------------8---8---8---|
------------------------------|---------------------7---7---7---|
------------------------------|---------------------------------|
------------------------------|---------------------------------|
------------------------------|---------------------------------|
--------15------------13------|--------8------------3------|
--------13------------13------|--------8------------3------|
------------------------------|----------------------------|
------------------------------|----------------------------|
------------------------------|----------------------------|
------------------------------|----------------------------|
--------15------------13------|--------13------------10------|
--------13------------13------|--------13------------10------|
------------------------------|------------------------------|
------------------------------|------------------------------|
------------------------------|------------------------------|
------------------------------|------------------------------|
-------------------|-------------------------------|
-------------------|--10-----------8---------------|
--7---7-7----------|--10--------x--8---------------|
--7---7-7--10------|--10--------x--8------------8--|
--5---5-5--7-------|--8---------x--6---------------|
-------------------|-------------------------------|
--6--6\-------------------------|------------------6-------------|
--6--6\---------10--------------|--10----13--------8----8~-------|
----------10----10--------------|--10----13--------8----8~-------|
----------------10--------------|--10----13-------------8~-------|
----------8-----8---------------|--------11----------------------|
--------------------------------|--------------------------------|
-----------------------------|-------------------------------|
--3------------3------x------|--10-----------8---------------|
--3------------3------x------|--10--------x--8---------------|
--3------------3------x------|--10--------x--8------------8--|
--1------------1-------------|--8---------x--6---------------|
-----------------------------|-------------------------------|
--6--6\-------------------------|------------------6---------------|
--6--6\---------10--------------|--10----13--------8----8~-----x-x-|
----------10----10--------------|--10----13--------8----8~-----x-x-|
----------8-----10--------------|--10----13-------------8~-----x-x-|
----------------8---------------|--------11------------------------|
--------------------------------|----------------------------------|
---------------------------|-----------------------------------------|
--3------------------------|-----10\8----8-----7~--------------------|
--3------------------------|-----9\-7----7-----7~-----5h-6-----------|
--3------------------------|-----7\-5----9-----7~-----------7--5h7p5-|
--1------------------------|--0-------0-----0------------------------|
---------------------------|-----------------------------------------|
--------------------------------------|--------------------------------|
-----10\8----8-----7~-----------------|--10------------10--------------|
-----9\-7----7-----7~---5-------------|--10------------10--------------|
-----7\-5----9-----7~------7p5-7~-----|--10------10----10--------------|
--0-------0-----0---------------------|--8-------7-----8---------------|
--------------------------------------|--------------------------------|
--------------3--------------|----------------------------------|
--5------5----3--------------|---------------10-----------------|
--5------5-------------------|--7------------10-----------------|
--5------5----5--------------|--7------10----10-----------------|
--3------3----5--------------|--5------7-----8------------------|
--------------3--------------|---------------------5----6----7--|
----------------------------------|-------------------|
----------------------------------|---------------10--|
----------------------------------|---------------10--|
----------------------------------|--0------10----10--|
----------------------------3--4--|---------7-----8---|
--8--0----1----2----3----5--------|-------------------|
-----------------------------|--6--6\-------------------------|
-------------8---------------|--6--6\---------10--------------|
----------x--8------------3--|----------10----10--------------|
----------x--8---------------|----------------10--------------|
----------x--6---------------|----------8-----8---------------|
-----------------------------|--------------------------------|
------------------6-------------|-----------------------------|
--10----13--------8----8~-------|--3------------3------x------|
--10----13--------8----8~-------|--3------------3------x------|
--10----13-------------8~-------|--3------------3------x------|
--------11----------------------|--1------------1-------------|
--------------------------------|-----------------------------|
-------------------------------|--6--6\-------------------------|
--10-----------8---------------|--6--6\---------10--------------|
--10--------x--8---------------|----------10----10--------------|
--10--------x--8------------8--|----------------10--------------|
--8---------x--6---------------|----------8-----8---------------|
-------------------------------|--------------------------------|
------------------6---------------|----------------------------|
--10----13--------8----8~-----x-x-|--3----------5--------------|
--10----13--------8----8~-----x-x-|--3----------5--------------|
--10----13-------------8~-----x-x-|--3----------5--------------|
--------11------------------------|----------------------------|
----------------------------------|----------------------------|
---------------------------------|--------------|--------------------------|
--3------------------------------|--------------|--------------------------|
--3------------------------------|--------------|--------------------------|
--3------3--2--------------------|--------------|--------------------------|
---------------3~-------3--2-----|--------------|--------------------------|
------------------------------3~-|--------------|--------------------------|
--------------------------|--------------------------|
--------------------------|--------------------------|
--------------------------|--------------------------|
--------------------------|--------------------------|
--------------------------|--------------------------|
--------------------------|--------------------------|
--------------------------|--------------------------|
--------------------------|--------------------------|
--------------------------|--------------------------|
--------------------------|--------------------------|
--------------------------|--------------------------|
--------------------------|--------------------------|
--------8------------3------|--------15------------13------|
--------8------------3------|--------13------------13------|
----------------------------|------------------------------|
----------------------------|------------------------------|
----------------------------|------------------------------|
----------------------------|------------------------------|
--------8------------10--10--10--|-------------------------------|
--------8------------8---8---8---|-------------------------------|
---------------------7---7---7---|-------------------------------|
---------------------------------|--------10----9--------9----8--|
---------------------------------|-------------------------------|
---------------------------------|--------8-----7--------7----6--|
------------------------------|-------------------------------|
------------------------------|--10-----------8---------------|
------------------------------|--10--------x--8---------------|
--------8----7----7\---5\-----|--10--------x--8------------8--|
------------------------------|--8---------x--6---------------|
--------6----5----5\---3\-----|-------------------------------|
--6--6\-------------------------|------------------6-------------|
--6--6\---------10--------------|--10----13--------8-------------|
----------10----10--------------|--10----13--------8----8~-------|
----------8-----10--------------|--10----13-------------8~-------|
----------------8---------------|--------11-------------8~-------|
--------------------------------|--------------------------------|
-----------------------------|-------------------------------|
--3------------3------x------|--10-----------8---------------|
--3------------3------x------|--10--------x--8---------------|
--3------------3------x------|--10--------x--8------------8--|
--1------------1-------------|--8---------x--6---------------|
-----------------------------|-------------------------------|
--6--6\-------------------------|------------------6---------------|
--6--6\---------10--------------|--10----13--------8----8~-----x-x-|
----------10----10--------------|--10----13--------8----8~-----x-x-|
----------------10--------------|--10----13-------------8~-----x-x-|
----------8-----8---------------|--------11------------------------|
--------------------------------|----------------------------------|
---------13--10/-15----12h15p12-------------15\-|
--3-----------------------------13------13------|
--3---------------------------------12----------|
--3---------------------------------------------|
--1---------------------------------------------|
------------------------------------------------|
--13--10h13p10-------------15----12h15p12-------------15\-|
---------------11------11/----------------13------13------|
-------------------10-------------------------12----------|
----------------------------------------------------------|
----------------------------------------------------------|
----------------------------------------------------------|
--13--10h13p10-------------15----12h15p12-------------15\-|
---------------11------11/----------------13------13------|
-------------------10-------------------------12----------|
----------------------------------------------------------|
----------------------------------------------------------|
----------------------------------------------------------|
--13--10h13p10-------------15----12h15p12-------------15\-|
---------------11------11/----------------13------13------|
-------------------10-------------------------12----------|
----------------------------------------------------------|
----------------------------------------------------------|
----------------------------------------------------------|
--13--10h13p10-------------15----12h15p12-------------15--|
---------------11------11/----------------13------13------|
-------------------10-------------------------12----------|
----------------------------------------------------------|
----------------------------------------------------------|
----------------------------------------------------------|
-------------------------------|--6--6\-------------------------|
--10-----------8---------------|--6--6\---------10--------------|
--10--------x--8---------------|----------10----10--------------|
--10--------x--8------------8--|----------------10--------------|
--8---------x--6---------------|----------8-----8---------------|
-------------------------------|--------------------------------|
------------------6-------------|---------------------------|
--10----13--------8----8~-------|--3------------------------|
--10----13--------8----8~-------|--3------------------------|
--10----13-------------8~-------|--3------------------------|
--------11----------------------|--1------------------------|
--------------------------------|---------------------------|
-------------------------------|--6--6\-------------------------|
--10-----------8---------------|--6--6\---------10--------------|
--10--------x--8---------------|----------10----10--------------|
--10--------x--8------------8--|----------------10--------------|
--8---------x--6---------------|----------8-----8---------------|
-------------------------------|--------------------------------|
------------------6-------------|----------------------------|
--10----13--------8----8~-------|--3------------3------------|
--10----13--------8----8~-------|--3------------3------------|
--10----13-------------8~-------|--3------------3------------|
--------11----------------------|--1------------1------------|
--------------------------------|----------------------------|
-------------------------------|--6--6\-------------------------|
--10-----------8---------------|--6--6\---------10--------------|
--10--------x--8---------------|----------10----10--------------|
--10--------x--8------------8--|----------------10--------------|
--8---------x--6---------------|----------8-----8---------------|
-------------------------------|--------------------------------|
--10--------------6-------------|---------------6--6--6--6--6--6\-|
--10----13--------8----8~-------|--3------------6--6--6--6--6--6\-|
--10----13--------9----8~-------|--3------------------------------|
--------13-------------8~-------|--3------------------------------|
--------11----------------------|--1------------------------------|
--------------------------------|---------------------------------|
-------------------------------|--6--6\-------------------------|
--10-----------8---------------|--6--6\---------10--------------|
--10--------x--8---------------|----------10----10--------------|
--10--------x--8------------8--|----------------10--------------|
--8---------x--6---------------|----------8-----8---------------|
-------------------------------|--------------------------------|
------------------6-------------|----------------------------|
--10----13--------8----8~-------|----------------------------|
--10----13--------8----8~-------|----------------5r---3~-----|
--10----13-------------8~-------|----------------------------|
--------11----------------------|----------------------------|
--------------------------------|----------------------------|
-------------------------------|--6--6\-------------------------|
--10-----------8---------------|--6--6\---------10--------------|
--10--------x--8---------------|----------10----10--------------|
--10--------x--8------------8--|----------------10--------------|
--8---------x--6---------------|----------8-----8---------------|
-------------------------------|--------------------------------|
------------------6-------------|----------------------------|
--10----13--------8----8~-------|--3------------3------------|
--10----13--------8----8~-------|--3------------3------------|
--10----13-------------8~-------|--3------------3------------|
--------11----------------------|--1------------1------------|
--------------------------------|----------------------------|
-------------------------------|--6--6\-------------------------|
--10-----------8---------------|--6--6\---------10--------------|
--10--------x--8---------------|----------10----10--------------|
--10--------x--8------------8--|----------------10--------------|
--8---------x--6---------------|----------8-----8---------------|
-------------------------------|--------------------------------|
------------------6-------------|---------------------------|
--10----13--------8----8~-------|--3------------------------|
--10----13--------8----8~-------|--3------------------------|
--10----13-------------8~-------|--3------------------------|
--------11----------------------|--1------------------------|
--------------------------------|---------------------------|
-------------------------------|--6--6\-------------------------|
--10--------x--8---------------|--6--6\---------10--------------|
--10--------x--8---------------|----------10----10--------------|
--10--------x--8------------8--|----------------10--------------|
--8------------6---------------|----------8-----8---------------|
-------------------------------|--------------------------------|
------------------6-------------|-----------------------------|
--10----13--------8----8~-------|--3------------3------x------|
--10----13--------8----8~-------|--3------------3------x------|
--10----13-------------8~-------|--3------------3------x------|
--------11----------------------|--1------------1-------------|
--------------------------------|-----------------------------|
-------------------------------|--6--6\-------------------------|
--10-----------8---------------|--6--6\---------10--------------|
--10--------x--8---------------|----------10----10--------------|
--10--------x--8------------8--|----------------10--------------|
--8---------x--6---------------|----------8-----8---------------|
-------------------------------|--------------------------------|
------------------6---------------|--|--|--||
--10----13--------8----8~-----x-x-|--|--|--||
--10----13--------8----8~-----x-x-|--|--|--||
--10----13-------------8~-----x-x-|--|--|--||
--------11------------------------|--|--|--||
----------------------------------|--|--|--||


Important: The song above is NOT stored on the Chordie server. The original song is hosted at www.geocities.com. Chordie works as a search engine and provides on-the-fly formatting. Chordie does not index songs against artists'/composers' will. To remove this song please click here.

This song is displayed as text-only. Transposing and tuning is only available for chordpro-songs.

Login - add to songbook

Rating click stars to rate

Layout
Accuracy

SHARE PAGE  




You need to log in to post comments