Guitar Tabs, Chords and Lyrics


Yesterday Is Here   Yes


E||----------------------|-------------------------|-------------------------|
B||----------------------|-------------------------|-------------------------|
G||-------------------4r-|----2-----------------4r-|----2-----------------4r-|
D||--------2----2--4-----|-------4--2-----2--4-----|-------4--2-----2--4-----|
A||----------------------|-------------0--0--0-----|-------------0--0--0-----|
E||----------------------|-------------------------|-------------------------|
--------------------------|------------------------|------------------------|
--------------------------|------------------------|------------------------|
----2---------------------|----------6r---4--------|----------6r---4--------|
-------4--2-----2--4/6-4--|----4--6----------6--4--|----4--6----------6--4--|
-------------0--0---------|------------------------|------------------------|
--------------------------|------------------------|------------------------|
------------------------|------4--------------------------|--------------------|
------------------------|---------7--4--------------------|--------------------|
----------6r---4-----6b-|---------------7p6p4-------------|--------------------|
----4--6----------6-----|---------------------6--6p-4-----|-----------------9\-|
------------------------|------------------------------7--|--7~----------------|
------------------------|---------------------------------|--------------------|
-----------------------|------------------------|----------------------|
-----------------------|------------------------|----------------------|
-----------------------|------------------------|----------------------|
--4--x------7----------|------2--2--3--3--4--4--|--5------5--5----5\---|
--------7/9------------|------------------------|----------------------|
-----------------------|------------------------|----------------------|
-----------------------|--------------------------|------------------------|
-----------------------|--------------------------|------------------------|
----------2---------4r-|----2---------------------|----------6r---4-----4/-|
--2----4--2------4-----|-------4--2-----2--4/6-4--|----4--6----------6-----|
--0----0--0------0-----|-------------0--0---------|------------------------|
-----------------------|--------------------------|------------------------|
------11-------9-----7-------14--|------------------------|
---------------------------------|------------------------|
--11------11\9----8-----9/14-----|------------------------|
---------------------------------|------------------------|
---------------------------------|----------7----7--7--7\-|
---------------------------------|----7--9----------------|
--------------------------|-----------------------|----------------------|
--------------------------|-----------------------|----------------------|
--------------------------|-----------------------|----0-----------------|
-----7------7----x--x--7--|-----2----2----2----0--|----------------------|
--5-----7/9---------------|--3--------------------|----------------------|
--------------------------|-----------------------|-------3--------3--0--|
-------------------------|--------------------------|------------------------|
-------------------------|--------------------------|------------------------|
----------------------4r-|----2---------------------|----4-----6r---4-----4--|
-----2--4--2----2--4-----|-------4--2-----2--4/6-4--|-------6----------6--4--|
--0--0--0--0----0--0-----|-------------0------------|------------------------|
-------------------------|--------------------------|------------------------|
------------------0---0---|-----------------0------0---|
------------------12b-12b-|----10------------------12r-|
----------6r---0----------|--------11--9~------11------|
----4--6------------------|----------------------------|
--------------------------|----------------------------|
--------------------------|----------------------------|
-----------------------------|----------------------------------|
------10-------------14b-14r-|--14r---12--------------------14b-|
----------11--9~-------------|------------13--11----11--13------|
-----------------------------|----------------------------------|
-----------------------------|----------------------------------|
-----------------------------|----------------------------------|
----14------14------14------14--|-------------------------|
--------14b-----14b-----14b-----|-------------------------|
--------------------------------|-------------------------|
--------------------------------|--------2-------------4/-|
--------------------------------|-----2-----2----2--2--2/-|
--------------------------------|--0--------0----0--0-----|
--------------------------|-------------------------|-----------------------|
--------------------------|-------------------------|-----------------------|
--------------------------|-------------------------|-----------------------|
--7-----------------------|-------------------------|-----------------------|
--5--x--5-----5--5--5--3--|--3----------3--3--3-----|-----2----5------------|
-----------5--------------|-------3--3-----------3--|--3------------3/---5--|
-------------------------|------------------------|--------------|
-------------------------|------------------------|--------------|
-----------2----------4r-|----2----------------4r-|----2---------|
-----2--4--2----2--4-----|-------4--2----2--4-----|-------4/7-5--|
--0--0--0--0----0--0-----|-------5--0----0--0-----|--------------|
--0----------------------|------------------------|--------------|
--------------------------|--------------------------|
--------------------------|--------------------------|
----------7r---5----------|-----------11r---9--------|
----5--7----------7/11-9--|----9--11-----------11\---|
--------------------------|--------------------------|
--------------------------|--------------------------|
-----------------------------|--------------------------------|
-----------------------------|--------------------------------|
----6---6--------6-----6b-6--|-------------0----------4r---2--|
--5h7---5h-7p-5--5-----5--5--|----------------5-5p4p2---------|
--------------------7--------|-------5--5--4------------------|
-----------------------------|----0---------------------------|
--------5------3-------------------|-------------------------------|
-----------------------------------|-------------------------------|
--4/-6-----6\4----4\2-----2p-0-----|-------------------------------|
-----------------------2--------2--|--1p-0-----0-------------------|
-----------------------------------|--------4-----3b-0--0----2--0--|
-----------------------------------|-------------------------------|
--2-3-4-5-------------------------|----------------------------------|
----------3-4-5-6-----------------|----------------------------------|
------------------4-5-6-7---------|----------------------------------|
--------------------------5-6-7-8-|----------------------------------|
----------------------------------|--6-7-8-9--------------9--x-9-----|
----------------------------------|----------7-8-9-10-11---------11--|
-----------------------------------------|
-----------------------------------------|
---------------------14-14p11----11------|
--12--12--12-12p9-------------13-----13--|
------------------11---------------------|
-----------------------------------------|
----------------------17-17p14----14\---|------0----0-----0------0-------0----|
--15--15--15-15p12-------------16-------|--0h2---3----5/8---8/10---10h12---12/|
-------------------14-------------------|-------------------------------------|
----------------------------------------|-------------------------------------|
----------------------------------------|-------------------------------------|
----------------------------------------|-------------------------------------|
-----0-------0-------0-------0-------0-------|
--15---15h17---17h20---17h20---17h20---17h20-|
---------------------------------------------|
---------------------------------------------|
---------------------------------------------|
---------------------------------------------|
--0-------0-------0-------0-------0-------0-|--------0-------0-----0-----------|
----17h20---17h20---17h20---17h20---17h20---|--17h20---17h20---20-----0--------|
--------------------------------------------|----------------------------------|
--------------------------------------------|----------------------------------|
--------------------------------------------|----------------------------------|
--------------------------------------------|----------------------------12\---|
-----------------------------|------------------------------------|
-------14--12~-------14------|--------------14--12~---------------|
-------14--12~-------14--16--|----14p12-----14--12~-------13--12\-|
-----------------14----------|----------14------------14--12--11\-|
-----------------------------|------------------------------------|
--0--------------------------|------------------------------------|
------------------------|--------------------------------|
-------2--0~------2--3--|-----------2--0-----------------|
-------2--0~------2--4--|----2p0----2--0h-1--------------|
----2----------2--------|--------2-----------2--0h-2p-0--|
------------------------|--------------------------------|
------------------------|--------------------------------|
------------------------|------------------------|-------------------------|
------------------------|------------------------|-------------------------|
----------2----------4r-|----2----------------4r-|----2-----------------4r-|
------2/4-2----2--4-----|-------4--2----2--4-----|-------4--2-----2--4-----|
------------------------|------------------------|-------------0-----------|
------------------------|------------------------|-------------------------|
--------------------------|------------------------|------------------------|
--------------------------|------------------------|------------------------|
----2---------------------|----------6r---4--------|----------6r---4--------|
-------4--2-----2--4/6-4--|----4--6----------6--4--|----4--6----------6--4--|
-------------0------------|------------------------|------------------------|
--------------------------|------------------------|------------------------|
------------------------|------7------9-------14--------16--|
------------------------|-----------------------------------|
----------6r---4-----4h-|--6/8----6/9----9/14-----14/16-----|
----4--6----------6-----|-----------------------------------|
------------------------|-----------------------------------|
------------------------|-----------------------------------|
--------------------------|-----------------------|----------------------|
--------------------------|-----------------------|----------------------|
--------------------------|-----------7-----------|----------5--------3/-|
----------6------------9--|--7-----------------5--|----------------------|
----7--9-------7--9/11----|--9--7/-9-----------7--|------5/7----------4/-|
--------------------------|-----------------------|----------------------|
------------7--------------|-------------------------|-------------------------|
-----3---------------------|-------------------------|-------------------------|
--4-----5/7------0---------|----------------------4r-|----2--------------------|
--------------------9\7-0--|--2--2--4--2----2--4-----|-------4--2----2--4/6-4--|
--5------------------------|--0--0-------------------|-------------------------|
---------------------------|-------------------------|-------------------------|
------------------------|----------4----------------|----------------------|
------------------------|-------------7--4----------|----------------------|
----------6r---4--------|-------6b----------6r---4--|--4----------4/---18--|
----4--6----------6--4--|----4----------------------|----------------------|
------------------------|---------------------------|----------------------|
------------------------|---------------------------|----------------------|
--14~---------------|--------------15------|------19--17------15----15\---|
--------------------|----------------------|------------------------------|
--------------------|------------------17/-|--19----------17--16----16\---|
--------------------|----------------------|------------------------------|
--------------------|----------------------|------------------------------|
--------------------|----------------------|------------------------------|
-------------------------|--------------------------|------------------------|
-------------------------|--------------------------|----------4----------4--|
----------------------4r-|----2---------------------|----------6r---4-----6r-|
--2--2--4--2----2--4-----|-------4--2--2--2--4/6-4--|----4--6----------6-----|
-------------------------|-------------0------------|------------------------|
-------------------------|--------------------------|------------------------|
--------------------0---0---|--------------------------12--|
-------------4------12b-12r-|----12r---10--------------15b-|
----6p-4-----6b-------------|--------------11--9----9------|
----------6-----------------|------------------------------|
----------------------------|------------------------------|
----------------------------|------------------------------|
----12b---12--12--12----------|--16--------14----14--14--------|
----15----15--13b-------------|--------------------------------|
----------------------14/-16--|------16\14-------14--14----16b-|
------------------------------|--------------------------------|
------------------------------|--------------------------------|
------------------------------|--------------------------------|
---14-----------14---------------|-------------------------|
---------------------------------|-------------------------|
-------16r16b-------16r---14\----|------------------7/-14--|
---------------------------------|-----------2-------------|
------------------------------0h-|--2--2h-4----------------|
------------------------------0--|--0----------------------|
--14--------14----14--------|----------------------|
----------------------------|----------------------|
--------14------------14----|--------------17/-19--|
----------------------------|----------------------|
----------------------------|----------------------|
----------------------------|----------------------|
--19--------17------15------13------12--------10----|-------------------------|
----------------------------------------------------|-------------------------|
------19\17-----16------14------12------12\10-----x-|----------------------4r-|
----------------------------------------------------|--2--2--4--2----2--4-----|
----------------------------------------------------|--0--0--0--0-------------|
----------------------------------------------------|-------------------------|
--------------------------|------------------------|------------------0---0---|
--------------------------|------------------------|------------------12b-12b-|
----2---------------------|----------6r---4--------|----------6r-6b-----------|
-------4--2--2--2--4/6-4--|----4--6----------6--4--|----4--6------------------|
-------------0------------|----2-------------------|--------------------------|
--------------------------|------------------------|--------------------------|
------------------|------------------|-------------------------|
------------------|------------------|-------------------------|
------------------|------------------|-----------2-------------|
------------------|------------------|--4----2/4------4--2--1--|
------------------|------------------|--2----------------------|
------------------|------------------|-------------------------|
-------------------------|--||
-------------------------|--||
-----------2-------2--4--|--||
-------2/4------4--------|--||
----2--------------------|--||
-------------------------|--||



Important: The song above is NOT stored on the Chordie server. The original song is hosted at www.geocities.com. Chordie works as a search engine and provides on-the-fly formatting. Chordie does not index songs against artists'/composers' will. To remove this song please click here.

This song is displayed as text-only. Transposing and tuning is only available for chordpro-songs.

Login - add to songbook

Rating click stars to rate

Layout
Accuracy

SHARE PAGE  




You need to log in to post comments