Guitar Tabs, Chords and Lyrics


Yesterday Is Here   Yes


E||--0----0--------------------------|----------------------------|
B||--3h5--3--5-----------------------|----------------------------|
G||----------4--0-2-0----------------|--5----5--5-----7---7-------|
D||-------------------2--x--x--x--x--|--5h7--5--5-----7h9-7-------|
A||----------------------------------|------------7/9--------9----|
E||----------------------------------|----------------------------|
------------------------------|--8-----8--8----10----10--------|
--8----8--8-------------------|--8h10--8--8----10h12-10--------|
--7h9--7--7-------------------|-------------9------------11----|
------------7-5-7-5-----------|--------------------------------|
--------------------7-5-------|--------------------------------|
------------------------7\-0--|--------------------------------|
--17\--14\--9/--14----|------------------|------------------|------------------|
--19\--15\--10/-17----|------------------|------------------|------------------|
----------------------|------------------|------------------|------------------|
----------------------|------------------|------------------|------------------|
----------------------|------------------|------------------|------------------|
----------------------|------------------|------------------|------------------|
--------------|---------------------------|---------------------------|
--------------|---------------------------|---------------------------|
--------------|---------------------------|---------------------------|
--------------|---------------------------|---------------------------|
--------------|------------6--------------|------------6--------------|
--------------|--8-6-4-6------8-6-4-6-----|--8-6-4-6------8-6-4-6-----|
-----------------------------|---------------------|
-----------------------------|---------------------|
-----------------------------|---------------------|
-----------------------------|---------------------|
------------6----------------|--------6------------|
--8-6-4-6------8-6-4-6---8-6-|--4-6------8-6-4-6---|
-----------------------------|-----------------------------|
-----------------------------|-----------------------------|
-------------9---------------|-------------9---------------|
--11-9-7-9------11-9-7-9-----|--11-9-7-9------11-9-7-9-----|
-----------------------------|-----------------------------|
-----------------------------|-----------------------------|
--------------------------------|----------------------|
--------------------------------|----------------------|
-------------9------------------|--------9-------------|
--11-9-7-9------11-9-7-9---11-9-|--7-9------11-9-7-9---|
--------------------------------|----------------------|
--------------------------------|----------------------|
----------------12------------------|----------------12------------------|
--14-12-10-12-------14-12-10-12-----|--14-12-10-12-------14-12-10-12-----|
------------------------------------|------------------------------------|
------------------------------------|------------------------------------|
------------------------------------|------------------------------------|
------------------------------------|------------------------------------|
----------------12----------------------|----------12----------------|
--14-12-10-12-------14-12-10-12---14-12-|--10-12-------14-12-10-12---|
----------------------------------------|----------------------------|
----------------------------------------|----------------------------|
----------------------------------------|----------------------------|
----------------------------------------|----------------------------|
--21-19-17-19-------21-19-17-19-----|--21-19-17-19-------21-19-17-19-----|
----------------17------------------|----------------17------------------|
------------------------------------|------------------------------------|
------------------------------------|------------------------------------|
------------------------------------|------------------------------------|
------------------------------------|------------------------------------|
--21-19-17-19-------21-19-17-19---21-19-|--17-19-------21-19-17-19---|
----------------17----------------------|----------17----------------|
----------------------------------------|----------------------------|
----------------------------------------|----------------------------|
----------------------------------------|----------------------------|
----------------------------------------|----------------------------|
-----------------------------|-------------------------17--|
-----------------------------|------------3----------------|
-----------------------------|--4-2-0-2------4-2-0-2---14--|
--------5----3---------------|-----------------------------|
--3-4-5----5------5-4-3------|-----------------------------|
------------------------6-3--|-----------------------------|
-----------------------------|-------------------------17--|
-----------------------------|------------3----------------|
-----------------------------|--4-2-0-2------4-2-0-2---14--|
--------5----3---------------|-----------------------------|
--3-4-5----5------5-4-3------|-----------------------------|
------------------------6-3--|-----------------------------|
-----------------------------|-------------------------17--|
-----------------------------|------------3----------------|
-----------------------------|--4-2-0-2------4-2-0-2---14--|
--------5----3---------------|-----------------------------|
--3-4-5----5------5-4-3------|-----------------------------|
------------------------6-3--|-----------------------------|
-----------------------------|-------------------------17--|
-----------------------------|------------3----------------|
-----------------------------|--4-2-0-2------4-2-0-2---14--|
--------5----3---------------|-----------------------------|
--3-4-5----5------5-4-3------|-----------------------------|
------------------------6-3--|-----------------------------|
-----------------------------|-------------------------17--|
-----------------------------|------------3----------------|
-----------------------------|--4-2-0-2------4-2-0-2---14--|
--------5----3---------------|-----------------------------|
--3-4-5----5------5-4-3------|-----------------------------|
------------------------6-3--|-----------------------------|
-----------------------------|-------------------------17--|
-----------------------------|------------3----------------|
-----------------------------|--4-2-0-2------4-2-0-2---14--|
--------5----3---------------|-----------------------------|
--3/4-5----5------5-4-3------|-----------------------------|
------------------------6-3--|-----------------------------|
-----------------------------|-------------------------17--|
-----------------------------|------------3----------------|
-----------------------------|--4-2-0-2------4-2-0-2---14--|
--------5----3---------------|-----------------------------|
--3-4-5----5------5-4-3------|-----------------------------|
------------------------6-3--|-----------------------------|
-----------------------------|-------------------------17--|
-----------------------------|------------3----------------|
-----------------------------|--4-2-0-2------4-2-0-2---14--|
--------5----3---------------|-----------------------------|
--3-4-5----5------5-4-3------|-----------------------------|
------------------------6-3--|-----------------------------|
-----------------------------|-------------------------17--|
-----------------------------|------------3----------------|
-----------------------------|--4-2-0-2------4-2-0-2---14--|
--------5----3---------------|-----------------------------|
--3-4-5----5------5-4-3------|-----------------------------|
------------------------6-3--|-----------------------------|
--3--x--x--3--x--x--x--x------------|-------------x--x--x--x-------------|
--3--x--x--3--x--x--x--x------------|-------------x--x--x--x-------------|
--4--x--x--4--x--x--x--x-----5------|-------------x--x--x--x----------5--|
--5--x--x--5--x--x--x--x-----5h7-5--|-------------x--x--x--x------5h7-5--|
--5--x--x--5--x--x--x--x-5h7--------|--7p5--------x--x--x--x--5h7--------|
--3--x--x--3--x--x--x--x------------|------7p5-3--x--x--x--x-------------|
-------------x--x--x--x----------------|--0~---------------|------------------|
-------------x--x--x--x--13------------|--0~---------------|------------------|
------7h9-7--x--x--x--x--12------------|--5~---------------|------------------|
--7/9--------x--x--x--x--12h14-12--10--|--7~---------------|------------------|
-------------x--x--x--x----------------|--0~---------------|------------------|
-------------x--x--x--x----------------|--x~---------------|------------------|
--14~---------------|-------------------|------------------|-------------|
--14~---------------|-------------------|------------------|-------------|
--14~---------------|-------------------|------------------|-------------|
--------------------|-------------------|------------------|--------11-9-|
--------------------|--------------x----|------------------|-------------|
--------------------|-------------------|------------------|-------------|
-------------------------------|-----------------------|
-------------------------------|-----------------------|
--------9----------------------|----9------------------|
--7-9------11-9-7-9---11-9-7-9-|-------11-9-7-9---11-9-|
-------------------------------|-----------------------|
-------------------------------|-----------------------|
-------------------------------|-----------------------|
-------------------------------|-----------------------|
--------9----------------------|----9------------------|
--7-9------11-9-7-9---11-9-7-9-|-------11-9-7-9---11-9-|
-------------------------------|-----------------------|
-------------------------------|-----------------------|
-------------------------------|-----------------------|
-------------------------------|-----------------------|
--------9----------------------|----9------------------|
--7-9------11-9-7-9---11-9-7-9-|-------11-9-7-9---11-9-|
-------------------------------|-----------------------|
-------------------------------|-----------------------|
-------------------------------|----------------------|
-------------------------------|------------------12--|
--------9----------------------|----9-----------------|
--7-9------11-9-7-9---11-9-7-9-|-------11-9-7-9-------|
-------------------------------|----------------------|
-------------------------------|----------------------|
-----------------------------|-------------------------17--|
-----------------------------|------------3----------------|
-----------------------------|--4-2-0-2------4-2-0-2---14--|
--------5----3---------------|-----------------------------|
--3-4-5----5------5-4-3------|-----------------------------|
------------------------6-3--|-----------------------------|
-----------------------------|-------------------------17--|
-----------------------------|------------3----------------|
-----------------------------|--4-2-0-2------4-2-0-2---14--|
--------5----3---------------|-----------------------------|
--3-4-5----5------5-4-3------|-----------------------------|
------------------------6-3--|-----------------------------|
-----------------------------|-------------------------17--|
-----------------------------|------------3----------------|
-----------------------------|--4-2-0-2------4-2-0-2---14--|
--------5----3---------------|-----------------------------|
--3-4-5----5------5-4-3------|-----------------------------|
------------------------6-3--|-----------------------------|
-----------------------------|-------------------------17--|
-----------------------------|------------3----------------|
-----------------------------|--4-2-0-2------4-2-0-2---14--|
--------5----3---------------|-----------------------------|
--3-4-5----5------5-4-3------|-----------------------------|
------------------------6-3--|-----------------------------|
-----------------------------|-------------------------17--|
-----------------------------|------------3----------------|
-----------------------------|--4-2-0-2------4-2-0-2---14--|
--------5----3---------------|-----------------------------|
--3/4-5----5------5-4-3------|-----------------------------|
------------------------6-3--|-----------------------------|
-----------------------------|-------------------------17--|
-----------------------------|------------3----------------|
-----------------------------|--4-2-0-2------4-2-0-2---14--|
--------5----3---------------|-----------------------------|
--3-4-5----5------5-4-3------|-----------------------------|
------------------------6-3--|-----------------------------|
-----------------------------|-------------------------17--|
-----------------------------|------------3----------------|
-----------------------------|--4-2-0-2------4-2-0-2---14--|
--------5----3---------------|-----------------------------|
--3-4-5----5------5-4-3------|-----------------------------|
------------------------6-3--|-----------------------------|
-----------------------------|-------------------------17--|
-----------------------------|------------3----------------|
-----------------------------|--4-2-0-2------4-2-0-2---14--|
--------5----3---------------|-----------------------------|
--3-4-5----5------5-4-3------|-----------------------------|
------------------------6-3--|-----------------------------|
--3--x--x--3--x--x--x--x------------|-------------x--x--x--x-------------|
--3--x--x--3--x--x--x--x------------|-------------x--x--x--x-------------|
--4--x--x--4--x--x--x--x-----5------|-------------x--x--x--x----------5--|
--5--x--x--5--x--x--x--x-----5h7-5--|-------------x--x--x--x------5h7-5--|
--5--x--x--5--x--x--x--x-5h7--------|--7p5--------x--x--x--x--5h7--------|
--3--x--x--3--x--x--x--x------------|------7p5-3--x--x--x--x-------------|
-------------x--x--x--x----------------|--0~---------------|------------------|
-------------x--x--x--x--13------------|--0~---------------|------------------|
------7h9-7--x--x--x--x--12------------|--5~---------------|------------------|
--7/9--------x--x--x--x--12h14-12--10--|--7~---------------|------------------|
-------------x--x--x--x----------------|--0~---------------|------------------|
-------------x--x--x--x----------------|--x~---------------|------------------|
--14~---------------|-------------------|------------------|----------|
--14~---------------|-------------------|------------------|----------|
--14~---------------|-------------------|------------------|----------|
--------------------|-------------------|------------------|----------|
--------------------|--------------x----|------------------|----------|
--------------------|-------------------|------------------|----------|
--1----x--1-----------------|-------1--x-x-1------------|
--3----x--3-----------------|-------3--x-x-3------------|
--4----x--4----2h4-2--------|-------4--x-x-4--2-4-2-----|
--4----x--4-----------4p2p0-|-------4--x-x-4---------4--|
--2----x--2-----------------|--2----2--x-x-2------------|
--1----x--1-----------------|-------1--x-x-1------------|
-------x--10-10-x-x-------------------|--------x--10-10-x-10-----x--|
-------x--12-12-x-x-12----12----------|--------x--12-12-x-12-----x--|
-------x--11-11-x-x-11h13-11----------|--------x--11-11-x-11-----x--|
-------x--13-13-x-x-----------13\11p9-|--------x--13-13-x-13-----x--|
-------x--11-11-x-x-------------------|--11----x--11-11-x-11-----x--|
--4----x--10-10-x-x-------------------|--------x--10-10-x-10-----x--|
--10-----------10--10---------|--------------------------------|
--10h12-----------------------|--------------------------------|
----------------------11\9-7--|-----------------------------7--|
------------------------------|--9--x-x-x--9--9-9-------7h9----|
------------------------------|-------------------10-10--------|
------------------------------|--------------------------------|




 Sitar starts


                                                                                                                                                         


-------------------|----------------------------------|
-------------------|----------------12----------------|
----------------9--|-----11----12-------12---11---9---|
-------------------|----------------------------------|
-------------------|----------------------------------|
-------------------|----------------------------------|
----------------9----10--|----12--9----------------------|
----------10-------------|-----------12--12-10-----------|
--11---------------------|---------------------11--------|
-------------------------|-------------------------12----|
-------------------------|-------------------------------|
-------------------------|-------------------------------|




                                Sitar ends


                                                                                                                                                         


-----------------------------|--------------------|------------------|
-----------9---10------------|--------------------|------------------|
--------9----------11--------|--------------------|------------------|
--11-------------------11----|--11----------------|------------------|
-----------------------------|--------------------|------------------|
-----------------------------|--------------------|------------------|
------------------|-------------------|-----------------------------|
------------------|-------------------|---------------12------------|
------------------|----------------9--|----11----12------12--11--9--|
------------------|-------------------|-----------------------------|
------------------|-------------------|-----------------------------|
------------------|-------------------|-----------------------------|
--------x--2--2----x--5--|----5--4----2--2--2----|--4-4-4----5-5-5----12----|
--------x--2--2----x--7--|----7--5----3--3--3----|--5-5-5----7-7-7----14----|
--11----x--2--2----x--7--|----7--6----4--4--4----|--6-6-6----7-7-7----13----|
--------x--4--4----x--7--|----7--6----4--4--4----|--6-6-6----7-7-7----14----|
--------x----------x-----|-----------------------|--------------------------|
--------x----------x-----|-----------------------|--------------------------|




                Slide guitar starts


                                                                                                                                                         


--9---------------9/-|--14------------12----|--12\-10----------------|
--9------------------|----------------------|--------------------12-/|
--9------------------|----------------------|------------------------|
--11-----------------|----------------------|------------------------|
--11-----------------|----------------------|------------------------|
--9------------------|----------------------|------------------------|
----------------------|---------------------|--------------------------|
--14----------12------|--12\-8--------------|--8/-10--------8/-10-\-7--|
----------------------|---------------------|--------------------------|
----------------------|---------------------|--------------------------|
----------------------|---------------------|--------------------------|
----------------------|---------------------|--------------------------|




                                               slider guitar ends


                                                                                                                                                         


------------------|------------------9\-7/-9/-|--21----------------|
------------------|--9/-12\-9/-14-------------|--------------------|
------------------|---------------------------|--------------------|
------------------|---------------------------|--------------------|
------------------|---------------------------|--------------------|
------------------|---------------------------|--------------------|
--------------------------|--------------5-5------|--12-12-14--9----------12--|
--------------------------|--7p5---5-7-7-----7----|---------------10----------|
--11p9--------------------|------6----------------|------------------11-------|
-------11p9-4--4p2--------|-----------------------|---------------------------|
-------------------4p2----|-----------------------|---------------------------|
-----------------------2--|-----------------------|---------------------------|
--12-14--9-----------|--7----9----10---12/10--9--7--|
-------------10--12--|--5----7----8----10/8---7--5--|
---------------------|------------------------------|
---------------------|------------------------------|
---------------------|------------------------------|
---------------------|------------------------------|
--9------12----16----17-19-|--17--------------------------------------|
--7------10----14----------|-----19-17--------------------------------|
---------------------------|-----------19\16--9h11p9------------------|
---------------------------|-------------------------12-9-------------|
---------------------------|------------------------------12-9--------|
---------------------------|-----------------------------------12-10--|
----------------------------------|
----------------------------------|
-------9---9---------14---14---14-|
--9/11---------11/16--------------|
----------------------------------|
----------------------------------|
----------------------------------------------|
--------17-------17-------17-------17---------|
--16h18----16h18----16h18----16h18----16h18---|
----------------------------------------------|
----------------------------------------------|
----------------------------------------------|
---------------------------------|-----------------------------|
---------------------------------|-----------------------------|
--2----4-------------------------|--7----7--7----9----9--------|
--2h4--2--2----------------------|--7h9--7--7----9h11-9--------|
------------2p0-2p0-2p0----------|------------9----------11----|
------------------------2--x--x--|-----------------------------|
-----------------------------------|--10-----10--10-----12----12--------|
--10-----10------------------------|--10h12--10--10-----12h14-12--------|
--9h-11--9-------------------------|----------------11------------13----|
-------------11-9-7-9-7------------|------------------------------------|
------------------------9-7--------|------------------------------------|
----------------------------7p5-2--|------------------------------------|
--17\--14\--9/--|--14--------------------|-------------------|
--19\--15\--10/-|--17--------------------|-------------------|
----------------|------------------------|-------------------|
----------------|--------------------0h2p|--0----------------|
----------------|----------------0h2-----|-------------------|
----------------|------------------------|-------------------|
------------------|----------------------|-------------------|
------------------|----------------------|-------------------|
------------------|----------------------|-------------------|
------------------|------------------0h2p|--0----------------|
------------------|--------------0h2-----|-------------------|
------------------|----------------------|-------------------|
------------------|------------------|------------------|------------------|
------------------|------------------|------------------|------------------|
------------------|------------------|------------------|------------------|
------------------|------------------|------------------|------------------|
------------------|------------------|------------------|------------------|
------------------|------------------|------------------|------------------|
--------------------------------|----------------------|
--------------------------------|----------------------|
-------------9------------------|--------9-------------|
--11-9-7-9------11-9-7-9---11-9-|--7-9------11-9-7-9---|
--------------------------------|----------------------|
--------------------------------|----------------------|
--------------------------------|----------------------|
--------------------------------|----------------------|
-------------9------------------|--------9-------------|
--11-9-7-9------11-9-7-9---11-9-|--7-9------11-9-7-9---|
--------------------------------|----------------------|
--------------------------------|----------------------|
--------------------------------|----------------------|
--------------------------------|----------------------|
-------------9------------------|--------9-------------|
--11-9-7-9------11-9-7-9---11-9-|--7-9------11-9-7-9---|
--------------------------------|----------------------|
--------------------------------|----------------------|
--------------------------------|--------------------------|
--------------------------------|----------------------15\-|
-------------9------------------|--------9-----------------|
--11-9-7-9------11-9-7-9---11-9-|--7-9------11-9-7-9-------|
--------------------------------|--------------------------|
--------------------------------|--------------------------|
-----------------------------|-----------------------------|
-----------------------------|-----------------------------|
-----------------------------|--4-2-0-2--------------------|
--------5----3---------------|------------5---4---------5--|
--3-4-5----5------5-4-3------|------------------5-4-3------|
------------------------6-3--|------------------------6----|
-----------------------------|-----------------------------|
-----------------------------|-----------------------------|
-----------------------------|--4-2-0-2--------------------|
--------5----3---------------|------------5---4---------5--|
--3-4-5----5------5-4-3------|------------------5-4-3------|
------------------------6-3--|------------------------6----|
-----------------------------|-----------------------------|
-----------------------------|-----------------------------|
-----------------------------|--4-2-0-2--------------------|
--------5----3---------------|------------5---3---------5--|
--3-4-5----5------5-4-3------|------------------5-4-3------|
------------------------6-3--|------------------------6----|
-----------------------------|------------5------------5--|
-----------------------------|----------------------------|
-----------------------------|--4-2-0-2-------4-2-0-2-----|
--------5----3---------------|----------------------------|
--3-4-5----5------5-4-3------|----------------------------|
------------------------6-3--|----------------------------|
-----------------------------|-------------------------17--|
-----------------------------|------------3----------------|
-----------------------------|--4-2-0-2------4-2-0-2---14--|
--------5----3---------------|-----------------------------|
--3-4-5----5------5-4-3------|-----------------------------|
------------------------6-3--|-----------------------------|
-----------------------------|-----------------------------|
-----------------------------|-----------------------------|
-----------------------------|--4-2-0-2--------------------|
--------5----3---------------|------------5---3---------5--|
--3-4-5----5------5-4-3------|------------------5-4-3------|
------------------------6-3--|------------------------6----|
-----------------------------|------------5------------5--|
-----------------------------|----------------------------|
-----------------------------|--4-2-0-2-------4-2-0-2-----|
--------5----3---------------|----------------------------|
--3-4-5----5------5-4-3------|----------------------------|
------------------------6-3--|----------------------------|
-----------------------------|----------------------------|--3----------------|
-----------------------------|------------3------------3--|--0----------------|
-----------------------------|--4-2-0-2------4-2-0-2------|--0----------------|
--------5----3---------------|----------------------------|--0----------------|
--3-4-5----5------5-4-3------|----------------------------|--2----------------|
------------------------6-3--|----------------------------|--3----------------|
----------|------------------|------------------|------------------|
----------|------------------|------------------|------------------|
----------|------------------|------------------|------------------|
----------|------------------|------------------|------------------|
----------|------------------|------------------|------------------|
----------|------------------|------------------|------------------|
------------------|--2--2-2-2--2---2--2-2--2--|--2--2-2-2--2---2--2-2--2--|
------------------|--3--3-3-3--3---3--3-3--3--|--3--3-3-3--3---3--3-3--3--|
------------------|--2--2-2-2--2---2--2-2--2--|--2--2-2-2--2---2--2-2--2--|
------------------|--4--4-4-4--4---4--4-4--4--|--4--4-4-4--4---4--4-4--4--|
------------------|--2--2-2-2--2---2--2-2--2--|--2--2-2-2--2---2--2-2--2--|
------------------|---------------------------|---------------------------|
--4--4-4-4--4---4--4-4--4--|--4--4-4-4--4---4--4-4--4--|
--4--4-4-4--4---4--4-4--4--|--4--4-4-4--4---4--4-4--4--|
--4--4-4-4--4---4--4-4--4--|--4--4-4-4--4---4--4-4--4--|
--4--4-4-4--4---4--4-4--4--|--4--4-4-4--4---4--4-4--4--|
--6--6-6-6--6---6--6-6--6--|--6--6-6-6--6---6--6-6--6--|
--4--4-4-4--4---4--4-4--4--|--4--4-4-4--4---4--4-4--4--|
--2--2-2-2--2---2--2-2--2--|--2--2-2-2--2---2--2-2--2--|
--3--3-3-3--3---3--3-3--3--|--3--3-3-3--3---3--3-3--3--|
--2--2-2-2--2---2--2-2--2--|--2--2-2-2--2---2--2-2--2--|
--4--4-4-4--4---4--4-4--4--|--4--4-4-4--4---4--4-4--4--|
--2--2-2-2--2---2--2-2--2--|--2--2-2-2--2---2--2-2--2--|
---------------------------|---------------------------|
--4--4-4-4--4---4--4-4--4--|--4--4-4-4--4---4--4-4--4--|
--4--4-4-4--4---4--4-4--4--|--4--4-4-4--4---4--4-4--4--|
--4--4-4-4--4---4--4-4--4--|--4--4-4-4--4---4--4-4--4--|
--4--4-4-4--4---4--4-4--4--|--4--4-4-4--4---4--4-4--4--|
--6--6-6-6--6---6--6-6--6--|--6--6-6-6--6---6--6-6--6--|
--4--4-4-4--4---4--4-4--4--|--4--4-4-4--4---4--4-4--4--|
--2--2-2-2--2---2--2-2--2--|--2--2-2-2--2---2--2-2--2--|
--3--3-3-3--3---3--3-3--3--|--3--3-3-3--3---3--3-3--3--|
--2--2-2-2--2---2--2-2--2--|--2--2-2-2--2---2--2-2--2--|
--4--4-4-4--4---4--4-4--4--|--4--4-4-4--4---4--4-4--4--|
--2--2-2-2--2---2--2-2--2--|--2--2-2-2--2---2--2-2--2--|
---------------------------|---------------------------|
--4--4-4-4--4---4--4-4--4--|--4--4-4-4--4---4--4-4--4--|
--4--4-4-4--4---4--4-4--4--|--4--4-4-4--4---4--4-4--4--|
--4--4-4-4--4---4--4-4--4--|--4--4-4-4--4---4--4-4--4--|
--4--4-4-4--4---4--4-4--4--|--4--4-4-4--4---4--4-4--4--|
--6--6-6-6--6---6--6-6--6--|--6--6-6-6--6---6--6-6--6--|
--4--4-4-4--4---4--4-4--4--|--4--4-4-4--4---4--4-4--4--|
--2--2-2-2--2---2--2-2--2--|--2--2-2-2--2---2--2-2--2--|
--3--3-3-3--3---3--3-3--3--|--3--3-3-3--3---3--3-3--3--|
--2--2-2-2--2---2--2-2--2--|--2--2-2-2--2---2--2-2--2--|
--4--4-4-4--4---4--4-4--4--|--4--4-4-4--4---4--4-4--4--|
--2--2-2-2--2---2--2-2--2--|--2--2-2-2--2---2--2-2--2--|
---------------------------|---------------------------|
--4--4-4-4--4---4--4-4--4--|--4--4-4-4--4---4--4-4--4--|
--4--4-4-4--4---4--4-4--4--|--4--4-4-4--4---4--4-4--4--|
--4--4-4-4--4---4--4-4--4--|--4--4-4-4--4---4--4-4--4--|
--4--4-4-4--4---4--4-4--4--|--4--4-4-4--4---4--4-4--4--|
--6--6-6-6--6---6--6-6--6--|--6--6-6-6--6---6--6-6--6--|
--4--4-4-4--4---4--4-4--4--|--4--4-4-4--4---4--4-4--4--|
--2--2-2-2--2---2--2-2--2--|--2--2-2-2--2---2--2-2--2--|
--3--3-3-3--3---3--3-3--3--|--3--3-3-3--3---3--3-3--3--|
--2--2-2-2--2---2--2-2--2--|--2--2-2-2--2---2--2-2--2--|
--4--4-4-4--4---4--4-4--4--|--4--4-4-4--4---4--4-4--4--|
--2--2-2-2--2---2--2-2--2--|--2--2-2-2--2---2--2-2--2--|
---------------------------|---------------------------|
--4--4-4-4--4---4--4-4--4--|--4--4-4-4--4---4--4-4--4--|
--4--4-4-4--4---4--4-4--4--|--4--4-4-4--4---4--4-4--4--|
--4--4-4-4--4---4--4-4--4--|--4--4-4-4--4---4--4-4--4--|
--4--4-4-4--4---4--4-4--4--|--4--4-4-4--4---4--4-4--4--|
--6--6-6-6--6---6--6-6--6--|--6--6-6-6--6---6--6-6--6--|
--4--4-4-4--4---4--4-4--4--|--4--4-4-4--4---4--4-4--4--|
--2--2-2-2--2---2--2-2--2--|--2--2-2-2--2---2--2-2--2--|------------------|
--3--3-3-3--3---3--3-3--3--|--3--3-3-3--3---3--3-3--3--|------------------|
--2--2-2-2--2---2--2-2--2--|--2--2-2-2--2---2--2-2--2--|------------------|
--4--4-4-4--4---4--4-4--4--|--4--4-4-4--4---4--4-4--4--|------------------|
--2--2-2-2--2---2--2-2--2--|--2--2-2-2--2---2--2-2--2--|------------------|
---------------------------|---------------------------|------------------|
------------------|------------------|--------------|
------------------|------------------|--------------|
------------------|------------------|--------------|
------------------|------------------|--------------|
------------------|------------------|--------------|
------------------|------------------|--------------|
----------------12------------------|----------------12------------------|
--14-12-10-12-------14-12-10-12-----|--14-12-10-12-------14-12-10-12-----|
------------------------------------|------------------------------------|
------------------------------------|------------------------------------|
------------------------------------|------------------------------------|
------------------------------------|------------------------------------|
----------------12----------------------|----------12----------------|
--14-12-10-12-------14-12-10-12---14-12-|--10-12-------14-12-10-12---|
----------------------------------------|----------------------------|
----------------------------------------|----------------------------|
----------------------------------------|----------------------------|
----------------------------------------|----------------------------|
----------------12------------------|----------------12------------------|
--14-12-10-12-------14-12-10-12-----|--14-12-10-12-------14-12-10-12-----|
------------------------------------|------------------------------------|
------------------------------------|------------------------------------|
------------------------------------|------------------------------------|
------------------------------------|------------------------------------|
----------------12----------------------|----------12----------------|
--14-12-10-12-------14-12-10-12---14-12-|--10-12-------14-12-10-12---|
----------------------------------------|----------------------------|
----------------------------------------|----------------------------|
----------------------------------------|----------------------------|
----------------------------------------|----------------------------|
----------------12------------------|----------------12------------------|
--14-12-10-12-------14-12-10-12-----|--14-12-10-12-------14-12-10-12-----|
------------------------------------|------------------------------------|
------------------------------------|------------------------------------|
------------------------------------|------------------------------------|
------------------------------------|------------------------------------|
----------------12----------------------|----------12----------------|
--14-12-10-12-------14-12-10-12---14-12-|--10-12-------14-12-10-12---|
----------------------------------------|----------------------------|
----------------------------------------|----------------------------|
----------------------------------------|----------------------------|
----------------------------------------|----------------------------|
----------------12------------------|----------------12------------------|
--14-12-10-12-------14-12-10-12-----|--14-12-10-12-------14-12-10-12-----|
------------------------------------|------------------------------------|
------------------------------------|------------------------------------|
------------------------------------|------------------------------------|
------------------------------------|------------------------------------|
----------------12----------------------|----------12----------------|
--14-12-10-12-------14-12-10-12---14-12-|--10-12-------14-12-10-12---|
----------------------------------------|----------------------------|
----------------------------------------|----------------------------|
----------------------------------------|----------------------------|
----------------------------------------|----------------------------|
----------------12------------------|----------------12------------------|
--14-12-10-12-------14-12-10-12-----|--14-12-10-12-------14-12-10-12-----|
------------------------------------|------------------------------------|
------------------------------------|------------------------------------|
------------------------------------|------------------------------------|
------------------------------------|------------------------------------|
----------------12------------------|----------------12------------------|
--14-12-10-12-------14-12-10-12-----|--14-12-10-12-------14-12-10-12-----|
------------------------------------|------------------------------------|
------------------------------------|------------------------------------|
------------------------------------|------------------------------------|
------------------------------------|------------------------------------|
----------------12------------------|----------------12------------------|
--14-12-10-12-------14-12-10-12-----|--14-12-10-12-------14-12-10-12-----|
------------------------------------|------------------------------------|
------------------------------------|------------------------------------|
------------------------------------|------------------------------------|
------------------------------------|------------------------------------|
----------------12------------------|----------------12------------------|
--14-12-10-12-------14-12-10-12-----|--14-12-10-12-------14-12-10-12-----|
------------------------------------|------------------------------------|
------------------------------------|------------------------------------|
------------------------------------|------------------------------------|
------------------------------------|------------------------------------|
----------------12------------------|--------------|
--14-12-10-12-------14-12-10-12-----|--14-12-10-12-|
------------------------------------|--------------|
------------------------------------|--------------|
------------------------------------|--------------|
------------------------------------|--------------|
-----------------------------|-----------------------------|
-----------------------------|-----------------------------|
-------------9---------------|-------------9---------------|
--11-9-7-9------11-9-7-9-----|--11-9-7-9------11-9-7-9-----|
-----------------------------|-----------------------------|
-----------------------------|-----------------------------|
--------------------------------|----------------------|
--------------------------------|----------------------|
-------------9------------------|--------9-------------|
--11-9-7-9------11-9-7-9---11-9-|--7-9------11-9-7-9---|
--------------------------------|----------------------|
--------------------------------|----------------------|




Guitar solo


                                                                                                                                                         


-----------------------------|-------------------------|
-----------------------------|-------------------------|
--6/4p2-------------6/4p2----|-----------6/4p2---------|
--------4----5------------4--|----5------------4----5--|
-----------------------------|-------------------------|
-----------------------------|-------------------------|
--------------------------|---------------|--------------------------------|
--------------------------|---------------|--------------------------------|
--------------------------|---------------|--6----7----9----6-7-6----------|
----4----2----0--0h-2h-4--|---------------|-----------------------7-5------|
--------------------------|--2------------|--------------------------------|
--------------------------|---------------|--------------------------------|
-----------------------|-------------------------------|-----------------------|
-----------------------|-------------------------------|-----------------------|
-------4---------------|-------------------------------|--------------4-6-7----|
----5------------------|----4-5-7-5-4------------------|--------4-5-7----------|
----------4--------4-5-|--7-----------7-5-4---4--------|--4-5-7----------------|
-----------------------|--------------------7----5--7--|-----------------------|
-----------------------|------------------------|------------------------|
-----------------------|------------------------|------------------------|
----9/-11----11--------|--------11--11--11------|--11h12-11--------------|
-----------------------|------------------------|------------------------|
-----------------------|------------------------|------------------------|
-----------------------|------------------------|------------------------|
--------------------|----------------------|--------10----------12p10-|
----------12--------|----------------------|--12----------------------|
----11----------11--|--12\-------------12--|--------------------------|
--------------------|----------------------|--------------------------|
--------------------|----------------------|--------------------------|
--------------------|----------------------|--------------------------|
--9------------------------|--------------------|-------------------------|
-----12-10-----------------|--------------------|-------------------------|
-------------9p7-7-6-------|--------------------|-------------------------|
---------------------------|------------11------|--9--------------11------|
---------------------------|---------12------10-|--------------12------10-|
---------------------------|--------------------|-------------------------|
-------------------------|-----------------------|------------------|
-------------------------|-----------------------|------------------|
-------------------------|-----------------------|------------------|
--9--------------11------|--9------11------9-----|----11------------|
--------------12------10-|---------12------10----|----12---------12-|
-------------------------|-----------------------|------------------|
-----------------------------|-------------------------|
-----------------------------|-------------------------|
-----------------------------|-------------------------|
--11------9----------11------|--9--------------11------|
-------10---------12------10-|--------------12------12-|
-----------------------------|-------------------------|
------------------------|---------------|--12-14--14-14--------------------14--|
------------------------|---------------|--------------------15-----18---------|
------------------------|---------------|-----------------16-----16-----16-----|
--11------11------11----|--9------------|--------------------------------------|
--12------12------12----|---------------|--------------------------------------|
--14--------------------|---------------|--------------------------------------|
---------------------------14---------|--12/-14--------------------------|
-----18-----15------18------------15--|----------15----------------------|
--16-----16------16-----16-----16-----|--------------16p14--11p9-------9-|
--------------------------------------|-----------------------------12---|
--------------------------------------|----------------------------------|
--------------------------------------|----------------------------------|
----------------------------|------------------------------------------|
----------------------------|------------------------------------------|
----11--9h11p9--------------|------------------------------------------|
---------------12-11-9----9-|---------------------------------9--9-12--|
-----------------------12---|--10/12\10/12\10/12\10/12\10/-12----------|
----------------------------|------------------------------------------|
---------------------------|--------------------------------|
---------------------------|--------------------------------|
------2-4--2---------------|---------------------------9-11-|
-------------5-4-2---------|----------------------9-12------|
-------------------5-4-----|---------------5-7-9------------|
-----------------------2---|--5-3-2----5-7------------------|
--------10--12/14------12-|--12-12---15---10---12------|
--10-12-------------------|----------------------------|
--------------------------|----------------------------|
--------------------------|----------------------------|
--------------------------|----------------------------|
--------------------------|----------------------------|
------------10-------10----------------|
------11h12----11h12----12p11p10-------|
---------------------------------11----|
---------------------------------------|
---------------------------------------|
---------------------------------------|
--------------------------------------------|----------------------|
--------------------------------------------|----------------------|
---11-11h12p11p10-11----11-12-11-9----------|--------11-9----------|
-----------------------------------12-11-9--|-------------12-11-9--|
--------------------------------------------|----------------------|
--------------------------------------------|----------------------|
--------------------------------|--------------------------------||
--------------------------------|--------------------------------||
--------------------------------|--------------------------------||
--------------------------------|--------------------------------||
--12-10-9-10-----12-10-9-10-----|--12-10-9-10-----12-10-9-10-----||
--------------------------------|--------------------------------||


Important: The song above is NOT stored on the Chordie server. The original song is hosted at www.geocities.com. Chordie works as a search engine and provides on-the-fly formatting. Chordie does not index songs against artists'/composers' will. To remove this song please click here.

This song is displayed as text-only. Transposing and tuning is only available for chordpro-songs.

Login - add to songbook

Rating click stars to rate

Layout
Accuracy

SHARE PAGE  




You need to log in to post comments