Guitar Tabs, Chords and Lyrics


Yesterday Is Here   Yes


G||--|--|--|--|--|--|--|--|--|--|--|--|--|--|--|--|--|--|--|--|--|--|--|--|--|
D||--|--|--|--|--|--|--|--|--|--|--|--|--|--|--|--|--|--|--|--|--|--|--|--|--|
A||--|--|--|--|--|--|--|--|--|--|--|--|--|--|--|--|--|--|--|--|--|--|--|--|--|
E||--|--|--|--|--|--|--|--|--|--|--|--|--|--|--|--|--|--|--|--|--|--|--|--|--|
--|--|--|--------18-16-------------------|--------18------------------|--|--|
--|--|--|--------------------------------|-----------19---------------|--|--|
--|--|--|-----19-------19h21-------17\---|--12-19-------19------------|--|--|
--|--|--|--12----------------------------|----------------------------|--|--|
--------18-16-------------------|--------18------------------|--|--|
--------------------------------|-----------19---------------|--|--|
-----19-------19h21-------17\---|--12-19-------19------------|--|--|
--12----------------------------|----------------------------|--|--|
--------18-16-------------------|--------18------------------|--|--|--|--|--|--|
--------------------------------|-----------19---------------|--|--|--|--|--|--|
-----19-------19h21-------17\---|--12-19-------19------------|--|--|--|--|--|--|
--12----------------------------|----------------------------|--|--|--|--|--|--|
--|--------18-16-------------------|--------18------------------|--|--|
--|--------------------------------|-----------19---------------|--|--|
--|-----19-------19h21-------17\---|--12-19-------19------------|--|--|
--|--12----------------------------|----------------------------|--|--|
--------18-16-------------------|--------18------------------|--|--|
--------------------------------|-----------19---------------|--|--|
-----19-------19h21-------17\---|--12-19-------19------------|--|--|
--12----------------------------|----------------------------|--|--|
--------18-16-------------------|--------18------------------|--|--|
--------------------------------|-----------19---------------|--|--|
-----19-------19h21-------17\---|--12-19-------19------------|--|--|
--12----------------------------|----------------------------|--|--|
--------18-16-------------------|--------18------------------|--|--|
--------------------------------|-----------19---------------|--|--|
-----19-------19h21-------17\---|--12-19-------19------------|--|--|
--12----------------------------|----------------------------|--|--|
--------18-16-------------------|--------18------------------|--|--|
--------------------------------|-----------19---------------|--|--|
-----19-------19h21-------17\---|--12-19-------19------------|--|--|
--12----------------------------|----------------------------|--|--|
--------18-16-------------------|--------18------------------|--|--|
--------------------------------|-----------19---------------|--|--|
-----19-------19h21-------17\---|--12-19-------19------------|--|--|
--12----------------------------|----------------------------|--|--|
--------18-16-------------------|--------18------------------|--|--|
--------------------------------|-----------19---------------|--|--|
-----19-------19h21-------17\---|--12-19-------19------------|--|--|
--12----------------------------|----------------------------|--|--|
--------18-16-------------------|--------18------------------|--|--|
--------------------------------|-----------19---------------|--|--|
-----19-------19h21-------17\---|--12-19-------19------------|--|--|
--12----------------------------|----------------------------|--|--|
--------18-16-------------------|--------18------------------|--|--|--|--|--|--|
--------------------------------|-----------19---------------|--|--|--|--|--|--|
-----19-------19h21-------17\---|--12-19-------19------------|--|--|--|--|--|--|
--12----------------------------|----------------------------|--|--|--|--|--|--|
--|--|--|--|--|--|--|--|--|--|--|--|--|--|--|--|--|--|--|--|--|--|--|--|--|--|
--|--|--|--|--|--|--|--|--|--|--|--|--|--|--|--|--|--|--|--|--|--|--|--|--|--|
--|--|--|--|--|--|--|--|--|--|--|--|--|--|--|--|--|--|--|--|--|--|--|--|--|--|
--|--|--|--|--|--|--|--|--|--|--|--|--|--|--|--|--|--|--|--|--|--|--|--|--|--|
--|--|--|--|--|--|--|--|--|--|--|--|--|--|--|--|--|--|--|--|--|--|--|--|--|--|
--|--|--|--|--|--|--|--|--|--|--|--|--|--|--|--|--|--|--|--|--|--|--|--|--|--|
--|--|--|--|--|--|--|--|--|--|--|--|--|--|--|--|--|--|--|--|--|--|--|--|--|--|
--|--|--|--|--|--|--|--|--|--|--|--|--|--|--|--|--|--|--|--|--|--|--|--|--|--|
--|--|--|--|--|--------18-16-------------------|--------18------------------|
--|--|--|--|--|--------------------------------|-----------19---------------|
--|--|--|--|--|-----19-------19h21-------17\---|--12-19-------19------------|
--|--|--|--|--|--12----------------------------|----------------------------|
--------18-16-------------------|--------18------------------||
--------------------------------|-----------19---------------||
-----19-------19h21-------17\---|--12-19-------19------------||
--12----------------------------|----------------------------||



Important: The song above is NOT stored on the Chordie server. The original song is hosted at www.geocities.com. Chordie works as a search engine and provides on-the-fly formatting. Chordie does not index songs against artists'/composers' will. To remove this song please click here.

This song is displayed as text-only. Transposing and tuning is only available for chordpro-songs.

Login - add to songbook

Rating click stars to rate

Layout
Accuracy

SHARE PAGE  




You need to log in to post comments