Guitar Tabs, Chords and Lyrics


Yesterday Is Here   Yes


E||------------------------------------|-----------------------------|
B||------------------------------------|-----------------------------|
G||------------------------------------|--------------9p8---7/-------|
D||-----------------12-10p9------------|------------9-----9----------|
A||--9--10--11--12----------12-10p9-x--|--8-9-12-12------------------|
E||------------------------------------|-----------------------------|
----------------------------------|--------------------|
----------------------------------|--------------------|
--21r-------19p18p16\14-----------|--------------------|
------------------------18-17-15--|----------15b-------|
----------------------------------|--------------------|
----------------------------------|--------------------|
--------------------------------------|---------------------------------------|
--3------3----3--------5--------------|--3--3----3----------------------------|
--2------2----2--4--2--5\-4p-2--4--2--|--2-------2----2--4--2--5p-4p-2--4-----|
--0------0----0--0--------------------|--0-------0-------------------------3h-|
--------------------------------------|---------------------------------------|
--------------------------------------|---------------------------------------|
--------------------------------------|----------------------------|
---------3----------------------------|----------------------------|
---------2----2--4--2--5p-4p-2--4--0--|--9b---9b-------------------|
--4-----------------------------------|----------------------------|
--------------------------------------|----------------------------|
--------------------------------------|----------------------------|
---------------------------------------|---------------------------------------|
--3--3----3----------------------------|-----3----3----------5-----------------|
--2--2----2----2--4--2--5h-4h-2--4--2\-|-----2----2----x--4--5--5p-4p-2--4-----|
--0--0----0----------------------------|--4---------------------------------3h-|
---------------------------------------|---------------------------------------|
---------------------------------------|---------------------------------------|
-------------------------------------------|
--------------3----3-----5-----------------|
--------------2----2--4--5--5p-4p-2--2--x--|
--4p-2h-4--x-------------------------------|
-------------------------------------------|
-------------------------------------------|
-----2-------------------------------|----------------------------------|
-----3-----3-------------------------|----------------------2--2--3--0--|
--2--2--0--2----x--4--2--------------|--------------2----x--2--2--2-----|
--0----------------------0-----------|-------------------x--2--2--4-----|
----------------------------3--2--1--|--0--------0----------------------|
-------------------------------------|----------------------------------|
----------------------------------|----------------------------------|
--5--5----5----5------------------|----------------------2--2--3p-2--|
--4--4----4----4--0---------------|-----------2-----2----2--2--2-----|
--5--5----5----5------------------|----------------------2--2--4p-2--|
-----------------------3--2--1----|--0-----------0-------------------|
----------------------------------|----------------------------------|
------------------------------------|-------------------------------------|
--5--5----5----5--5--5--------------|---------3----3----------------------|
--4--4----4----4--4--4--------------|---------2----2--4--2--4h5p4p2-4--2--|
--5--5----5----5--5--5--------------|--0----------------------------------|
------------------------0--2--3--4--|-------------------------------------|
------------------------------------|-------------------------------------|
--------------------------------------|
---------3----------------------------|
---------2----2--4--5--5p-4p-2h-4--2/-|
--0-----------------------------------|
--------------------------------------|
--------------------------------------|
------14---------------------------------|
-----------------------------------------|
--14--------2----2--4--5--5p-4p-2--4--2--|
------------0----0-----------------------|
-----------------------------------------|
-----------------------------------------|
------10----10-------------------------|-------------------------------|
---------------------------------------|-------------------2--2--3--2--|
--11--------11----2--4--2--------------|-------------------2--2--2--2--|
------------------0--------0-----------|-------------------2--2--4--2--|
------------------------------3--2--1--|--0----------------------------|
---------------------------------------|-------------------------------|
-------------------------------------|--------------------------------|
--5--5----5-----5--5--5--------------|--------------------2--2--3--2--|
--4--4----4--0--4--4--4--------------|--------------------2--2--2--2--|
--5--5----5--------5--5--------------|--------------------2--2--4--2--|
-------------------------3--2--1--0--|--0------0----------------------|
-------------------------------------|--------------------------------|
-------------------------------------|----------------------------------|
--5--5--5--5--5--5--5--5--5--5--5----|----------------------------------|
--0--0--0--0--0--0--0--0--0--0--0----|----------------------------------|
--5--5--5--5--5--5--5--5--5--5--5----|--5p-3p-0--5--4------0------------|
-------------------------------------|----------------------------------|
-------------------------------------|----------------------------------|
---------------------------------|-------------------------------|
---------------------------------|-------------------------------|
-----------7--7\-----------------|-------------------------------|
--0h-5--7------------------------|--5p-4--5--4-------------------|
---------------------------------|----------------5--------------|
---------------------------------|-------------------------------|
------------------------------------------|
------------------------------------------|
-------------7--7----9----10----11----12--|
--12p-10p-7-------------------------------|
------------------------------------------|
------------------------------------------|
----------9----12----10p-9------------|-----9/-14~---------17----14p-12------|
----10----------------------10--9\-8--|----------------------------------14--|
--------------------------------------|--9-----------------------------------|
--------------------------------------|--------------------------------------|
--------------------------------------|--------------------------------------|
--------------------------------------|--------------------------------------|
--15--------------------------------------|
------14p-13--14--------------------------|
---------------------12\-11-----12----11--|
------------------------------------------|
------------------------------------------|
------------------------------------------|
----------------------------------------------------|
----------------------------------------------------|
--14--12h14p12\11-----------------------------------|
-------------------11--12--11p-10--11p-10--9\-7--7--|
----------------------------------------------------|
----------------------------------------------------|
----------2----------------------------|
-----3----3----------------------------|
-----2----2----2--4--2--5p-4p-2--4--x--|
--0------------------------------------|
---------------------------------------|
---------------------------------------|
-----2----2--2--------------------------|
-----3----3--3--3-----------------------|
--2-------2--2-----4--5--5p-4p-2--4-----|
--0----------------------------------3h-|
----------------------------------------|
----------------------------------------|
-----------2-------3-------------------|-----2----2------------------------|
----------------3----------------------|--2--3----3------------------------|
-----------2-------4----5p-4p-2--4--2--|---------------2--4----------------|
--4p-3p-4------------------------------|----------4----------0-------------|
---------------------------------------|--------------------------3--2--1--|
---------------------------------------|-----------------------------------|
-------------------------------------|--2----------------------------------|
-------------------------------------|--3------3----3----------------------|
-------------2--4--5--4--2--5p-4p-2--|--2------2----2----4--5p-4p-2--4-----|
-------------------------------------|----------------------------------3h-|
--0----------------------------------|-------------------------------------|
-------------------------------------|-------------------------------------|
------------------------------------------|
-------------3----------------------------|
-------------2----2--4--5--5p-4p-2--4--2/-|
--4p-2h-4---------------------------------|
------------------------------------------|
------------------------------------------|
------10-----------------------------|---------------------------------|
-------------------------------------|------------------2--2--2--3--2--|
--11-------------2--4----------------|--2------2--------2--2--2--2--2--|
-------------------------------------|--2------2--------2--2--2--4--2--|
-------------------------0-----------|---------------------------------|
------------0---------------3--2--0--|---------------------------------|
------------------------------------|------------------------------|
--5--5----5----5--5--5--------------|------------------2--2--3--2--|
--4--4----4----4--4--4--------------|------------------2--2--2--2--|
--5--5----5----5--5--5--------------|------------------2--2--4--2--|
------------------------3--2--1--0--|------------------------------|
------------------------------------|------------------------------|
-------------------------------------|
--5--5----5--5--5--5--5--------------|
--4--4----4--4--4--4--4--------------|
--5--5----5--5--5--5--5--5--5--3p-2--|
-------------------------------------|
-------------------------------------|
----------------14----14----15----14--------|
----------------------------------------10h-|
--11--10--11--------------------------------|
--------------------------------------------|
--------------------------------------------|
--------------------------------------------|
-----------------------------------------|----------------------------------|
----12-10-8------------------------------|----------------------------------|
-------------10h-11p-10b-----------7-----|----------------------------------|
--------------------------------------9--|--7----------------7------7-------|
-----------------------------------------|-----10--8h-9------------------8/-|
-----------------------------------------|----------------------------------|
--------------------------------------------|
----------------------------------------10--|
---------------9h11p9----9--11----12--------|
-----9--9h-10---------10--------------------|
--9-----------------------------------------|
--------------------------------------------|
------------------------------------------------|
----13p-12--10--13p-12--13p-12--13p-12--13p-12--|
------------------------------------------------|
------------------------------------------------|
------------------------------------------------|
------------------------------------------------|
--------------------------17------15--14--|
--13p-12--13/-14--------------14----------|
------------------------------------------|
------------------------------------------|
------------------------------------------|
------------------------------------------|
------15--------------------------------|
----------13------14p-13----------------|
--------------------------14p-12\-11----|
----------------------------------------|
----------------------------------------|
----------------------------------------|
-------------------------------------------|
-------------------------------------------|
--12----12--12~--------8\7--5-----7--------|
-------------------------------7-----5--7--|
-------------------------------------------|
-------------------------------------------|
--------------------------------------------|
----------------7-8-9-10---10--10-8-7----7--|
--7--7----7--10-----------------------9-----|
--------------------------------------------|
--------------------------------------------|
--------------------------------------------|
--------------------------------------------|
-----------------7--8-----------------------|
--7--7----7--10--------7--------------------|
-------------------------11\10-7------------|
---------------------------------10--9------|
--------------------------------------------|
----------------------14----------------------------|
----------------------------------12----------------|
--------------------------11\-10--12--12----13p-10--|
--11--12----10--------------------------------------|
------------------12--------------------------------|
----------------------------------------------------|
--------------------12-15/17----17p16p14----------------------------|
-----------------13----------------------17-15p-13p-12--------------|
--10h-13/-14--14----------------------------------------14p-12p-11--|
--------------------------------------------------------------------|
--------------------------------------------------------------------|
--------------------------------------------------------------------|
----------------------------|--------------------------|
----------------------------|--------------------------|
----------------------------|--------------------------|
--12------------------------|--------------------------|
----------------------------|--------------------------|
----------------------------|--------------------------|
--------------------------|--------------------------|
--------------------------|--------------------------|
--------------------------|--------------------------|
--------------------------|--------------------------|
--------------------------|--------------------------|
--------------------------|--------------------------|
--------------------------------|-------------------------------|
--5h7p5------6h8p6-----7h8p7----|----8h10p8------9h11p9---------|
--------6----------7---------8--|-----------9-----------10------|
--------------------------------|-------------------------------|
--------------------------------|-------------------------------|
--------------------------------|-------------------------------|
------10----10----------------------------------------|
------------------12--10h12p10------------------------|
--11---------------------------11--10h-11-------------|
-------------------------------------------12--12--9--|
------------------------------------------------------|
------------------------------------------------------|
------10----10----------------------------------|
------------------12--10h12p10h12-10h12p10------|
--11--------------------------------------------|
------------------------------------------------|
------------------------------------------------|
------------------------------------------------|
------10----10-------------------------------------|
------------------12--10h12p10---------------------|
--11---------------------------11--9h11p9----------|
------------------------------------------12--9/---|
---------------------------------------------------|
---------------------------------------------------|
------10--------11\-8------10--------14------|
---------------------------------------------|
--11--------12---------11--------14------14--|
---------------------------------------------|
---------------------------------------------|
---------------------------------------------|
--14/-15--0-----------0-------------|--------------------------------------|
------------------------------------|--------------------------------------|
-----------------2-------------2----|--2--2------2--2--2-------------------|
------------------------------------|-----------------------5p-4p-2--4--2--|
------------------------------------|--------------------------------------|
------------------------------------|--------------------------------------|
---------------------------------|------------------------------------|
---------------------------------|--14------14--14----14--------17b---|
--2--2----2--2----2------2--2----|--2-------2---2-----2---------------|
---------------------------------|--2-------2---2-----2---------------|
---------------------------------|--0-------0---0-----0---------------|
---------------------------------|------------------------------------|
----------17----17----------------|------------------------17--------|
------------------------17--17----|----17r---17r---17b---------------|
----------------------------------|----------------------------------|
----------------------------------|----------------------------------|
----------------------------------|----------------------------------|
----------------------------------|----------------------------------|
-------------------------------|-------------------------------------------|
--x----------------------------|-------------------------------------------|
--x--9r-9r---9--------7--------|----2h4---2--5p-4p-2--4--2--5p-4p-2--4--0--|
-------------------------------|-------------------------------------------|
-------------------------------|-------------------------------------------|
-------------------------------|-------------------------------------------|
----------------------------------|
--2------2----2--2--2--3--2--5----|
--2------2----2--2--2--2--2--4----|
--2------2----2--2--2--4--2--5----|
--0------0----0-------------------|
----------------------------------|
-------------------9---9---9---9---9---9---9---|
--5----5--5--5-----10--10--10--10--10--10--10--|
--4----4--4--4--0--11--11--11--11--11--11--11--|
--5----5--5--5---------------------------------|
-----------------------------------------------|
-----------------------------------------------|
--9-----9---9-----9---9---9---9---9---9---9---|
--10----10--10----10--10--10--10--10--10--10--|
--11----11--11----11--11--11--11--11--11--11--|
----------------------------------------------|
----------------------------------------------|
----------------------------------------------|
------9---------10--------11--------12----|--------------------------|
------10--------11--------12--------13----|--------------------------|
--11--------12--------13--------14--------|--------------------------|
------------------------------------------|--------------------------|
------------------------------------------|--------------------------|
------------------------------------------|--------------------------|
----------|-------------------------------------------|
----------|--1----------------------------------------|
----------|--2----------------------------------------|
----------|--0--------0---------------12p10p9----9~---|
----------|----------------9h-10h-12----------12------|
----------|-------------------------------------------|
--------------------------------------------------------|
--------------------------------------------------------|
-------------------------------------9p-7-----7--9/-11--|
----------------------------7h-8h-9--------9------------|
------10p-9------12p-10p-9------------------------------|
-------------12-----------------------------------------|
--------------------12----------------|--5------------------------||
--10h12p10----10----------------------|--5------------------------||
-----------11-------------------------|--5------------------------||
--------------------------------------|--4------------------------||
--------------------------------------|--5------------------------||
--------------------------------------|--5------------------------||


Important: The song above is NOT stored on the Chordie server. The original song is hosted at www.geocities.com. Chordie works as a search engine and provides on-the-fly formatting. Chordie does not index songs against artists'/composers' will. To remove this song please click here.

This song is displayed as text-only. Transposing and tuning is only available for chordpro-songs.

Login - add to songbook

Rating click stars to rate

Layout
Accuracy

SHARE PAGE  




You need to log in to post comments