Guitar Tabs, Chords and Lyrics


Yesterday Is Here   Yes


||--------------------|--||------------------|--------|---------------








||--------------------|--||------------------|--------|---------------








||--2--4--5--7--7--\--|--||*--2--4--5--7--7--|--------|--2--4--5------



||--2--4--5--7--7--\--|--||*--2--4--5--7--7--|--5--5--|--2--4--5------



||--0--2--3--5--5--\--|--||---0--2--3--5--5--|--5--5--|--0--2--3------



||--------------------|--||------------------|--3--3--|---------------





                                    


e  w   4x     q  e   e  x x  x  x  x  x  q          e  e  e  e  e


                                                                                               


-------||--|--r--10--r----------------------|--||------------0--------
-------||--|--e--12--e----------------------|--||------3--------3-----
7--7--*||--|--s--11--s-------5--7--5--------|--||*--------0-----------
7--7--*||--|--t--10--t--5h7-----------7--5--|--||*--------------------
5--5---||--|--------------------------------|--||---0-----------------
-------||--|--------------------------------|--||---------------------





                                    


e  e  e     e  e  e  e  e  e  e  e   4x


                                                                                               


---------|---------------------------||--|----------------------------
---------|-----3-----------3---------||--|----------------------------
2--------|--------2--0--------2--0--*||--|----------------------------
---2--4--|--0-----------0-----------*||--|----------------------------
---------|---------------------------||--|----------------------------
---------|---------------------------||--|----------------------------





                                    


Ownwr of a lonely heart e  e  e  e  e


                                                                                               


---0--------------------0--------------------------------------||-----
---5-----------------------3-----3-----------------------------||-----
---7--------------------------0-----0--------------------------||-----
---7-----------------------------------------------------------||-----
---------------------------------------------------------------||-----
---------------------------------------------------------------||-----





                                    


quiqar Qoloe Add htheitsh eraqsposee.tq  s H     q    e   q  e


                                                                                               


r-------------|--r--------------|-----r-------|--10^--12--10p8--------
e--8^--10--8--|--e-----7-----5--|-----e--5h8--|-----------------------
s-------------|--s-----7-----5--|-----s-------|-----------------------
t-------------|--t--7-----7-----|--7--t-------|-----------------------
--------------|-----------------|-------------|-----------------------
--------------|-----------------|-------------|-----------------------





                                    


     q  e e         q  e    W         e  e  e   e e  e  q     q


                                                                                               


~~~--r--8h10~~~--|--r--------------|--------------------r--|--r-------
-----e-----------|--e--20^--22~~~--|--------------------e--|--e-------
-----s-----------|--s--------------|--0--2--4^--5p4--2--s--|--s-------
-----t-----------|--t--------------|--------------------t--|--t-------
-----------------|-----------------|-----------------------|----------
-----------------|-----------------|-----------------------|----------





                                    


e  e      e  q  e  Q         q  e   e  e   e  h h     e   e   e^


                                                                                               


8------------r------------|--8--10--8--------------|------------------
---10~~~--8--e--8--10~~~--|------------10----------|------------------
-------------s------------|----------------9--0h2--|--14------12------
-------------t------------|------------------------|------14----------
--------------------------|------------------------|------------------
--------------------------|------------------------|------------------





                                    


e^  e^  e^  e^  e^  e^  e^  e^  q   e   q  q  e    e      e   e


                                                                                               


----------------------------------------r--r-----------|--------------
----------------------------------------e--e--20^--22--|--17--20------
14--12--14--12--14--12--14--12--14--12--s--s-----------|--------------
----------------------------------------t--t-----------|--------------
-------------------------------------------------------|--------------
-------------------------------------------------------|--------------





                                    


e^  e^  e^  x   x   x   t   x      x   x   x   t   x   s   s   s


                                                                                               


17--20--19--20--19--17----------|-------------------------------------
------------------------20--17--|--20--19--17------17-----------------
--------------------------------|--------------19------19--17---------
--------------------------------|------------------------------19-----
--------------------------------|-------------------------------------
--------------------------------|-------------------------------------





                                    


s   e    h            e  e  e  e  e  e  e  e     e  e  e  e  e  e


                                                                                               


-------------||--||------------0--------------|-----------------------
-------------||--||------3--------3-----------|-----3-----------3-----
17--17^--19--||--||*--------0--------2--------|--------2--0-----------
-------------||--||*--------------------2--4--|--0-----------0--------
-------------||--||---0-----------------------|-----------------------
-------------||--||---------------------------|-----------------------





                                    


e  e   4x


                                                                                               


-------||-------------------------------------------------------------
-------||-------------------------------------------------------------
2--0--*||-------------------------------------------------------------
------*||-------------------------------------------------------------
-------||-------------------------------------------------------------
-------||-------------------------------------------------------------



Important: The song above is NOT stored on the Chordie server. The original song is hosted at www.geocities.com. Chordie works as a search engine and provides on-the-fly formatting. Chordie does not index songs against artists'/composers' will. To remove this song please click here.

This song is displayed as text-only. Transposing and tuning is only available for chordpro-songs.

Login - add to songbook

Rating click stars to rate

Layout
Accuracy

SHARE PAGE  




You need to log in to post comments