Guitar Tabs, Chords and Lyrics


Yesterday Is Here   Yes


E||---------------------|--------------------|--------------------|
B||---------------------|--------------------|--------------------|
G||*------0~-------0----|--------------------|------0~-------0----|
D||*------2~-------2----|--------------------|------2~-------2----|
A||-------3~-------3----|------3~---2--------|------3~-------3----|
E||---------------------|------4~------------|--------------------|
--------------------|-------------------|--------------------|
--------------------|-------------------|--------------------|
--------------------|-------------------|--------------------|
--------------------|-------------------|--------------------|
------3~---2--------|------2------------|------0--------2----|
------4~------------|-------------------|------1--------1----|
------------------------|-----------1--------|--------------------|
------------------------|-----------0--------|--------------------|
---------------0--0--0--|--2~----------------|------0~------------|
--2~-----------2--2--2--|--3~----------------|------2~-------2----|
--3~-----------3--3--3--|--3~----------------|------3~-------3----|
--3~--------------------|--------------------|---------------5----|
--------------------|--------------------|--------------------|
--------------------|--------------------|--------------------|
--------------------|------0~-------0----|--------------------|
--------------------|------2~-------2----|--------------------|
------3~---2--------|------3~-------3----|------3~---2--------|
------7~------------|--------------------|------4~------------|
-------------------|--------------------|-------------------|
-------------------|--------------------|-------------------|
-------------------|--------------------|-------------------|
-------------------|--------------------|--2~---------------|
------3~-----------|------0~-------2----|--3~---------------|
------3~-----------|------7~-------1----|--3~---------------|
--------------------|--------------------|--------------------|
--------------------|--------------------|--------------------|
--------------------|---------------2----|---------------2----|
--2~-----------2----|------3--------3----|------3--------3----|
---------------1----|------3-------------|------3-------------|
--3~----------------|------5-------------|------4-------------|
-------------------|-----------------------------|--------------------|
-------------------|-----------------------------|--------------------|
--0----------------|-----------------------------|---------------2----|
--2----------------|--2--2--2--2--2--2--2--------|------3--------3----|
--3----------------|--3--3--3--3--3--3--2--------|------3-------------|
-------------------|-----------------------------|------5-------------|
--------------------|------------------|------------------|--------------------|
--------------------|------------------|------------------|--------------------|
---------------3----|------------------|------------------|------0-------------|
------3--------3----|------------------|------------------|------2--------2----|
------3-------------|------------------|------------------|------3--------3----|
------4-------------|------------------|------------------|---------------5----|
--------------------|--------------------|--------------------|
--------------------|--------------------|--------------------|
--------------------|------0-------------|--------------------|
--------------------|------2--------2----|--------------------|
------3----2--------|------3--------3----|------3----2--------|
------7-------------|---------------5----|------4-------------|
-------------------|--------------------|------------------------|
-------------------|--------------------|------------------------|
-------------------|--------------------|--0------------0--0--0--|
-------------------|--------------------|---------------2--2--2--|
------3------------|------1--------2----|--3------------3--3--3--|
------3------------|------1--------3----|--0---------------------|
---------------------||--------------------|-------------------||
---------------------||--------------------|--1~---------------||
--------------------*||--0-----------------|-------------------||
--4--------3--------*||-----------1--------|--2~---------------||
--3--------2---------||--3--------3--------|--3~---------------||
---------------------||--0-----------------|-------------------||


Important: The song above is NOT stored on the Chordie server. The original song is hosted at www.geocities.com. Chordie works as a search engine and provides on-the-fly formatting. Chordie does not index songs against artists'/composers' will. To remove this song please click here.

This song is displayed as text-only. Transposing and tuning is only available for chordpro-songs.

Login - add to songbook

Rating click stars to rate

Layout
Accuracy

SHARE PAGE  




You need to log in to post comments