Guitar Tabs, Chords and Lyrics


Yesterday Is Here   Yes


E||--9----9----7----------|--7----7---5----------|--5---5---3----------|
B||--10---9----7----------|--8----7---5----------|--6---5---3----------|
G||--9----9----8----------|--7----7---6----------|--5---5---4----------|
D||--11---11---9----------|--9----9---7----------|--7---7---5----------|
A||--12---11---9----------|--10---9---7----------|--8---7---5----------|
E||-----------------------|----------------------|---------------------|
--7---7---7----------|--9----9----7----------|--7----7---5----------|
--7---7---7----------|--10---9----7----------|--8----7---5----------|
--9---9---9----------|--9----9----8----------|--7----7---6----------|
--9---9---9----------|--11---11---9----------|--9----9---7----------|
--9---9---9----------|--12---11---9----------|--10---9---7----------|
---------------------|-----------------------|----------------------|
--5---5---3----------|------------7----------|--9----9----7----------|
--6---5---3----------|--10---10---7----------|--10---9----7----------|
--5---5---4----------|--9----9----9----------|--9----9----8----------|
--7---7---5----------|--7----7----9----------|--11---11---9----------|
--8---7---5----------|--6----6----9----------|--12---11---9----------|
---------------------|-----------------------|-----------------------|
--7----7---5----------|--5---5---3----------|--7---7---7----------|
--8----7---5----------|--6---5---3----------|--7---7---7----------|
--7----7---6----------|--5---5---4----------|--9---9---9----------|
--9----9---7----------|--7---7---5----------|--9---9---9----------|
--10---9---7----------|--8---7---5----------|--9---9---9----------|
----------------------|---------------------|---------------------|
--9----9----7----------|--7----7---5----------|--5---5---3----------|
--10---9----7----------|--8----7---5----------|--6---5---3----------|
--9----9----8----------|--7----7---6----------|--5---5---4----------|
--11---11---9----------|--9----9---7----------|--7---7---5----------|
--12---11---9----------|--10---9---7----------|--8---7---5----------|
-----------------------|----------------------|---------------------|
---------7-----|------------------|------------------|------------------|--|--|
--10-10--7-----|------------------|------------------|------------------|--|--|
--9--9---9-----|------------------|------------------|------------------|--|--|
--7--7---9-----|------------------|------------------|------------------|--|--|
--6--6---9-----|------------------|------------------|------------------|--|--|
---------------|------------------|------------------|------------------|--|--|
--|--|--|--|--x--x--12----x--x--10----|--x--x--9-----x--x--7-----|
--|--|--|--|--x--x--12----x--x--10----|--x--x--10----x--x--8-----|
--|--|--|--|--x--x--12----x--x--11----|--x--x--9-----x--x--7-----|
--|--|--|--|--x--x--14----x--x--12----|--x--x--11----x--x--9-----|
--|--|--|--|--x--x--------x--x--------|--x--x--------x--x--10----|
--|--|--|--|--x--x--------x--x--------|--x--x--------x--x--------|
--x--x--12----x--x--10----|--x--x--8-----x--x--10----|
--x--x--12----x--x--10----|--x--x--8-----x--x--10----|
--x--x--12----x--x--11----|--x--x--9-----x--x--11----|
--x--x--14----x--x--12----|--x--x--10----x--x--12----|
--x--x--------x--x--------|--x--x--------x--x--------|
--x--x--------x--x--------|--x--x--------x--x--------|
--x--x--12--12--x--x--10----|--x--x--9-----x--x--7-----|
--x--x--12--12--x--x--10----|--x--x--10----x--x--8-----|
--x--x--12--12--x--x--11----|--x--x--9-----x--x--7-----|
--x--x--14--14--x--x--12----|--x--x--11----x--x--9-----|
--x--x----------x--x--------|--x--x--------x--x--10----|
--x--x----------x--x--------|--x--x--------x--x--------|
--x--x--12----x--x--10----|------------------|--|--|--|--|--|--|--|--|--|--|--|
--x--x--12----x--x--10----|------------------|--|--|--|--|--|--|--|--|--|--|--|
--x--x--12----x--x--11----|------------------|--|--|--|--|--|--|--|--|--|--|--|
--x--x--14----x--x--12----|------------------|--|--|--|--|--|--|--|--|--|--|--|
--x--x--------x--x--------|------------------|--|--|--|--|--|--|--|--|--|--|--|
--x--x--------x--x--------|------------------|--|--|--|--|--|--|--|--|--|--|--|
--|--|--x--x--12--12--x--x--10----|--x--x--9-----x--x--7-----|
--|--|--x--x--12--12--x--x--10----|--x--x--10----x--x--8-----|
--|--|--x--x--12--12--x--x--11----|--x--x--9-----x--x--7-----|
--|--|--x--x--14--14--x--x--12----|--x--x--11----x--x--9-----|
--|--|--x--x----------x--x--------|--x--x--------x--x--10----|
--|--|--x--x----------x--x--------|--x--x--------x--x--------|
--x--12----12--10----10----|--9-----9-----7---------|
--x--12----12--10----10----|--10----10----8---------|
--x--12----12--11----11----|--9-----9-----7---------|
--x--14----14--12----12----|--11----11----9---------|
--x------------------------|--------------10--------|
--x------------------------|------------------------|
--x--x--12--12--x--x--10----|--x--x--9-----x--x--7-----|
--x--x--12--12--x--x--10----|--x--x--10----x--x--8-----|
--x--x--12--12--x--x--11----|--x--x--9-----x--x--7-----|
--x--x--14--14--x--x--12----|--x--x--11----x--x--9-----|
--x--x----------x--x--------|--x--x--------x--x--10----|
--x--x----------x--x--------|--x--x--------x--x--------|
--x--x--12--12--x--x--10----|--x--x--9-----x--x--7-----|
--x--x--12--12--x--x--10----|--x--x--10----x--x--8-----|
--x--x--12--12--x--x--11----|--x--x--9-----x--x--7-----|
--x--x--14--14--x--x--12----|--x--x--11----x--x--9-----|
--x--x----------x--x--------|--x--x--12----x--x--10----|
--x--x----------x--x--------|--x--x--------x--x--------|
--x--x--12--12--x--x--10----|--x--x--9-----x--x--7-----|
--x--x--12--12--x--x--10----|--x--x--10----x--x--8-----|
--x--x--12--12--x--x--11----|--x--x--9-----x--x--7-----|
--x--x--14--14--x--x--12----|--x--x--11----x--x--9-----|
--x--x----------x--x--------|--x--x--------x--x--10----|
--x--x----------x--x--------|--x--x--------x--x--------|
--x--x--12--12--x--x--10----|--x--x--9-----x--x--7-----|------------------|--|
--x--x--12--12--x--x--10----|--x--x--10----x--x--8-----|------------------|--|
--x--x--12--12--x--x--11----|--x--x--9-----x--x--7-----|------------------|--|
--x--x--14--14--x--x--12----|--x--x--11----x--x--9-----|------------------|--|
--x--x----------x--x--------|--x--x--12----x--x--10----|------------------|--|
--x--x----------x--x--------|--x--x--------x--x--------|------------------|--|
--x--x--12--12--x--x--10----|--x--x--9-----x--x--7-----|
--x--x--12--12--x--x--10----|--x--x--10----x--x--8-----|
--x--x--12--12--x--x--11----|--x--x--9-----x--x--7-----|
--x--x--14--14--x--x--12----|--x--x--11----x--x--9-----|
--x--x----------x--x--------|--x--x--12----x--x--10----|
--x--x----------x--x--------|--x--x--------x--x--------|
--x--x--12--12--x--x--10----|--x--x--9-----x--x--7-----|
--x--x--12--12--x--x--10----|--x--x--10----x--x--8-----|
--x--x--12--12--x--x--11----|--x--x--9-----x--x--7-----|
--x--x--14--14--x--x--12----|--x--x--11----x--x--9-----|
--x--x----------x--x--------|--x--x--12----x--x--10----|
--x--x----------x--x--------|--x--x--------x--x--------|
--x--x--12--12--x--x--10----|--x--x--9-----x--x--7-----|
--x--x--12--12--x--x--10----|--x--x--10----x--x--8-----|
--x--x--12--12--x--x--11----|--x--x--9-----x--x--7-----|
--x--x--14--14--x--x--12----|--x--x--11----x--x--9-----|
--x--x----------x--x--------|--x--x--12----x--x--10----|
--x--x----------x--x--------|--x--x--------x--x--------|
--x--12----12--10----10----|--9-----9-----7---------|------------------|--|--|
--x--12----12--10----10----|--10----10----8---------|------------------|--|--|
--x--12----12--11----11----|--9-----9-----7---------|------------------|--|--|
--x--14----14--12----12----|--11----11----9---------|------------------|--|--|
--x------------------------|--12----12----10--------|------------------|--|--|
--x------------------------|------------------------|------------------|--|--|
--|--|--|--|--|--|--|--|--|--|--|--|--|--|--x--x--12--12--x--x--10----|
--|--|--|--|--|--|--|--|--|--|--|--|--|--|--x--x--12--12--x--x--10----|
--|--|--|--|--|--|--|--|--|--|--|--|--|--|--x--x--12--12--x--x--11----|
--|--|--|--|--|--|--|--|--|--|--|--|--|--|--x--x--14--14--x--x--12----|
--|--|--|--|--|--|--|--|--|--|--|--|--|--|--x--x----------x--x--------|
--|--|--|--|--|--|--|--|--|--|--|--|--|--|--x--x----------x--x--------|
--x--x--9-----x--x--7-----|--x--x--12--12--x--x--10----|
--x--x--10----x--x--8-----|--x--x--12--12--x--x--10----|
--x--x--9-----x--x--7-----|--x--x--12--12--x--x--11----|
--x--x--11----x--x--9-----|--x--x--14--14--x--x--12----|
--x--x--------x--x--10----|--x--x----------x--x--------|
--x--x--------x--x--------|--x--x----------x--x--------|
--x--x--9-----x--x--7-----|--x--x--12--12--x--x--10----|
--x--x--10----x--x--8-----|--x--x--12--12--x--x--10----|
--x--x--9-----x--x--7-----|--x--x--12--12--x--x--11----|
--x--x--11----x--x--9-----|--x--x--14--14--x--x--12----|
--x--x--------x--x--10----|--x--x----------x--x--------|
--x--x--------x--x--------|--x--x----------x--x--------|
--x--x--9-----x--x--7-----|--x--x--12--12--x--x--10----|
--x--x--10----x--x--8-----|--x--x--12--12--x--x--10----|
--x--x--9-----x--x--7-----|--x--x--12--12--x--x--11----|
--x--x--11----x--x--9-----|--x--x--14--14--x--x--12----|
--x--x--------x--x--10----|--x--x----------x--x--------|
--x--x--------x--x--------|--x--x----------x--x--------|
--x--x--9-----x--x--7-----|--x--x--12--12--x--x--10----|
--x--x--10----x--x--8-----|--x--x--12--12--x--x--10----|
--x--x--9-----x--x--7-----|--x--x--12--12--x--x--11----|
--x--x--11----x--x--9-----|--x--x--14--14--x--x--12----|
--x--x--------x--x--10----|--x--x----------x--x--------|
--x--x--------x--x--------|--x--x----------x--x--------|
--x--x--9-----x--x--7-----|--x--x--12--12--x--x--10----|
--x--x--10----x--x--8-----|--x--x--12--12--x--x--10----|
--x--x--9-----x--x--7-----|--x--x--12--12--x--x--11----|
--x--x--11----x--x--9-----|--x--x--14--14--x--x--12----|
--x--x--------x--x--10----|--x--x----------x--x--------|
--x--x--------x--x--------|--x--x----------x--x--------|
--x--x--9-----x--x--7-----|--x--x--12--12--x--x--10----|
--x--x--10----x--x--8-----|--x--x--12--12--x--x--10----|
--x--x--9-----x--x--7-----|--x--x--12--12--x--x--11----|
--x--x--11----x--x--9-----|--x--x--14--14--x--x--12----|
--x--x--12----x--x--10----|--x--x----------x--x--------|
--x--x--------x--x--------|--x--x----------x--x--------|
--x--x--9-----x--x--7-----|--x--x--12--12--x--x--10----|
--x--x--10----x--x--8-----|--x--x--12--12--x--x--10----|
--x--x--9-----x--x--7-----|--x--x--12--12--x--x--11----|
--x--x--11----x--x--9-----|--x--x--14--14--x--x--12----|
--x--x--12----x--x--10----|--x--x----------x--x--------|
--x--x--------x--x--------|--x--x----------x--x--------|
--x--x--9-----x--x--7-----|--x--12----12--10----10----|------------------|--|--|
--x--x--10----x--x--8-----|--x--12----12--10----10----|------------------|--|--|
--x--x--9-----x--x--7-----|--x--12----12--11----11----|------------------|--|--|
--x--x--11----x--x--9-----|--x--14----14--12----12----|------------------|--|--|
--x--x--------x--x--10----|--x------------------------|------------------|--|--|
--x--x--------x--x--------|--x------------------------|------------------|--|--|
--|--|--|--|--|--|--|--|--|--|--|--|--|--|--|--|--|--|--9----9----7----------|
--|--|--|--|--|--|--|--|--|--|--|--|--|--|--|--|--|--|--10---9----7----------|
--|--|--|--|--|--|--|--|--|--|--|--|--|--|--|--|--|--|--9----9----8----------|
--|--|--|--|--|--|--|--|--|--|--|--|--|--|--|--|--|--|--11---11---9----------|
--|--|--|--|--|--|--|--|--|--|--|--|--|--|--|--|--|--|--12---11---9----------|
--|--|--|--|--|--|--|--|--|--|--|--|--|--|--|--|--|--|-----------------------|
--7----7---5----------|--5---5---3----------|--7---7---7----------|
--8----7---5----------|--6---5---3----------|--7---7---7----------|
--7----7---6----------|--5---5---4----------|--9---9---9----------|
--9----9---7----------|--7---7---5----------|--9---9---9----------|
--10---9---7----------|--8---7---5----------|--9---9---9----------|
----------------------|---------------------|---------------------|
--9----9----7----------|--7----7---5----------|--5---5---3----------|
--10---9----7----------|--8----7---5----------|--6---5---3----------|
--9----9----8----------|--7----7---6----------|--5---5---4----------|
--11---11---9----------|--9----9---7----------|--7---7---5----------|
--12---11---9----------|--10---9---7----------|--8---7---5----------|
-----------------------|----------------------|---------------------|
------------7----------|--|--|--|--|--|--|--|--|--|--|--|------------------|--|
--10---10---7----------|--|--|--|--|--|--|--|--|--|--|--|------------------|--|
--9----9----9----------|--|--|--|--|--|--|--|--|--|--|--|------------------|--|
--7----7----9----------|--|--|--|--|--|--|--|--|--|--|--|------------------|--|
--6----6----9----------|--|--|--|--|--|--|--|--|--|--|--|------------------|--|
-----------------------|--|--|--|--|--|--|--|--|--|--|--|------------------|--|
--|--|--|--|--|--|--x--x--12--12--x--x--10----|--x--x--9-----x--x--7-----|
--|--|--|--|--|--|--x--x--12--12--x--x--10----|--x--x--10----x--x--8-----|
--|--|--|--|--|--|--x--x--12--12--x--x--11----|--x--x--9-----x--x--7-----|
--|--|--|--|--|--|--x--x--14--14--x--x--12----|--x--x--11----x--x--9-----|
--|--|--|--|--|--|--x--x----------x--x--------|--x--x--------x--x--10----|
--|--|--|--|--|--|--x--x----------x--x--------|--x--x--------x--x--------|
--x--x--12--12--x--x--10----|--x--x--9-----x--x--7-----|
--x--x--12--12--x--x--10----|--x--x--10----x--x--8-----|
--x--x--12--12--x--x--11----|--x--x--9-----x--x--7-----|
--x--x--14--14--x--x--12----|--x--x--11----x--x--9-----|
--x--x----------x--x--------|--x--x--12----x--x--10----|
--x--x----------x--x--------|--x--x--------x--x--------|
--x--x--12--12--x--x--10----|--x--x--9-----x--x--7-----|
--x--x--12--12--x--x--10----|--x--x--10----x--x--8-----|
--x--x--12--12--x--x--11----|--x--x--9-----x--x--7-----|
--x--x--14--14--x--x--12----|--x--x--11----x--x--9-----|
--x--x----------x--x--------|--x--x--------x--x--10----|
--x--x----------x--x--------|--x--x--------x--x--------|
--x--x--12--12--x--x--10----|--x--x--9-----x--x--7-----|------------------|--|
--x--x--12--12--x--x--10----|--x--x--10----x--x--8-----|------------------|--|
--x--x--12--12--x--x--11----|--x--x--9-----x--x--7-----|------------------|--|
--x--x--14--14--x--x--12----|--x--x--11----x--x--9-----|------------------|--|
--x--x----------x--x--------|--x--x--12----x--x--10----|------------------|--|
--x--x----------x--x--------|--x--x--------x--x--------|------------------|--|
--x--x--12--12--x--x--10----|--x--x--9-----x--x--7-----|
--x--x--12--12--x--x--10----|--x--x--10----x--x--8-----|
--x--x--12--12--x--x--11----|--x--x--9-----x--x--7-----|
--x--x--14--14--x--x--12----|--x--x--11----x--x--9-----|
--x--x----------x--x--------|--x--x--------x--x--10----|
--x--x----------x--x--------|--x--x--------x--x--------|
--x--x--12--12--x--x--10----|--x--x--9-----x--x--7-----|
--x--x--12--12--x--x--10----|--x--x--10----x--x--8-----|
--x--x--12--12--x--x--11----|--x--x--9-----x--x--7-----|
--x--x--14--14--x--x--12----|--x--x--11----x--x--9-----|
--x--x----------x--x--------|--x--x--------x--x--10----|
--x--x----------x--x--------|--x--x--------x--x--------|
--x--x--12--12--x--x--10----|--x--x--9-----x--x--7-----|
--x--x--12--12--x--x--10----|--x--x--10----x--x--8-----|
--x--x--12--12--x--x--11----|--x--x--9-----x--x--7-----|
--x--x--14--14--x--x--12----|--x--x--11----x--x--9-----|
--x--x----------x--x--------|--x--x--------x--x--10----|
--x--x----------x--x--------|--x--x--------x--x--------|
--x--12----12--10----10----|--9-----9-----7---------|------------------|--|--|
--x--12----12--10----10----|--10----10----8---------|------------------|--|--|
--x--12----12--11----11----|--9-----9-----7---------|------------------|--|--|
--x--14----14--12----12----|--11----11----9---------|------------------|--|--|
--x------------------------|--------------10--------|------------------|--|--|
--x------------------------|------------------------|------------------|--|--|
--|--|--|--|--|--|--|--|--|--|--|--|--|--|--|--|--|--|--|--|
--|--|--|--|--|--|--|--|--|--|--|--|--|--|--|--|--|--|--|--|
--|--|--|--|--|--|--|--|--|--|--|--|--|--|--|--|--|--|--|--|
--|--|--|--|--|--|--|--|--|--|--|--|--|--|--|--|--|--|--|--|
--|--|--|--|--|--|--|--|--|--|--|--|--|--|--|--|--|--|--|--|
--|--|--|--|--|--|--|--|--|--|--|--|--|--|--|--|--|--|--|--|
--9----9----7----------|--7----7---5----------|--5---5---3----------|
--10---9----7----------|--8----7---5----------|--6---5---3----------|
--9----9----8----------|--7----7---6----------|--5---5---4----------|
--11---11---9----------|--9----9---7----------|--7---7---5----------|
--12---11---9----------|--10---9---7----------|--8---7---5----------|
-----------------------|----------------------|---------------------|
--7---7---7----------|--9----9----7----------|--7----7---5----------|
--7---7---7----------|--10---9----7----------|--8----7---5----------|
--9---9---9----------|--9----9----8----------|--7----7---6----------|
--9---9---9----------|--11---11---9----------|--9----9---7----------|
--9---9---9----------|--12---11---9----------|--10---9---7----------|
---------------------|-----------------------|----------------------|
--5---5---3----------|------------7----------|--9----9----7----------|
--6---5---3----------|--10---10---7----------|--10---9----7----------|
--5---5---4----------|--9----9----9----------|--9----9----8----------|
--7---7---5----------|--7----7----9----------|--11---11---9----------|
--8---7---5----------|--6----6----9----------|--12---11---9----------|
---------------------|-----------------------|-----------------------|
--7----7---5----------|--5---5---3----------|--7---7---7----------|
--8----7---5----------|--6---5---3----------|--7---7---7----------|
--7----7---6----------|--5---5---4----------|--9---9---9----------|
--9----9---7----------|--7---7---5----------|--9---9---9----------|
--10---9---7----------|--8---7---5----------|--9---9---9----------|
----------------------|---------------------|---------------------|
--9----9----7----------|--7----7---5----------|--5---5---3----------|
--10---9----7----------|--8----7---5----------|--6---5---3----------|
--9----9----8----------|--7----7---6----------|--5---5---4----------|
--11---11---9----------|--9----9---7----------|--7---7---5----------|
--12---11---9----------|--10---9---7----------|--8---7---5----------|
-----------------------|----------------------|---------------------|
--7----------------|------------------|--|--|--|--||
--7----------------|------------------|--|--|--|--||
--9----------------|------------------|--|--|--|--||
--9----------------|------------------|--|--|--|--||
--9----------------|------------------|--|--|--|--||
-------------------|------------------|--|--|--|--||



Important: The song above is NOT stored on the Chordie server. The original song is hosted at www.geocities.com. Chordie works as a search engine and provides on-the-fly formatting. Chordie does not index songs against artists'/composers' will. To remove this song please click here.

This song is displayed as text-only. Transposing and tuning is only available for chordpro-songs.

Login - add to songbook

Rating click stars to rate

Layout
Accuracy

SHARE PAGE  




You need to log in to post comments