Guitar Tabs, Chords and Lyrics


Yesterday Is Here   Yes


E||--|--|--|--|--|--|--|--|--|--|--|--|--|--|--|--|--|--|--|--|--|--|--|--|--|
B||--|--|--|--|--|--|--|--|--|--|--|--|--|--|--|--|--|--|--|--|--|--|--|--|--|
G||--|--|--|--|--|--|--|--|--|--|--|--|--|--|--|--|--|--|--|--|--|--|--|--|--|
D||--|--|--|--|--|--|--|--|--|--|--|--|--|--|--|--|--|--|--|--|--|--|--|--|--|
A||--|--|--|--|--|--|--|--|--|--|--|--|--|--|--|--|--|--|--|--|--|--|--|--|--|
E||--|--|--|--|--|--|--|--|--|--|--|--|--|--|--|--|--|--|--|--|--|--|--|--|--|
--|--|--|--|--|--|--|--|--|--|--|--|--|--|--|--|--|--|--|--|--|--|--|--|--|--|
--|--|--|--|--|--|--|--|--|--|--|--|--|--|--|--|--|--|--|--|--|--|--|--|--|--|
--|--|--|--|--|--|--|--|--|--|--|--|--|--|--|--|--|--|--|--|--|--|--|--|--|--|
--|--|--|--|--|--|--|--|--|--|--|--|--|--|--|--|--|--|--|--|--|--|--|--|--|--|
--|--|--|--|--|--|--|--|--|--|--|--|--|--|--|--|--|--|--|--|--|--|--|--|--|--|
--|--|--|--|--|--|--|--|--|--|--|--|--|--|--|--|--|--|--|--|--|--|--|--|--|--|
--|--|--|--|--|--|--|--|--|--|--|--|--|--|--|--|--|--|--|
--|--|--|--|--|--|--|--|--|--|--|--|--|--|--|--|--|--|--|
--|--|--|--|--|--|--|--|--|--|--|--|--|--|--|--|--|--|--|
--|--|--|--|--|--|--|--|--|--|--|--|--|--|--|--|--|--|--|
--|--|--|--|--|--|--|--|--|--|--|--|--|--|--|--|--|--|--|
--|--|--|--|--|--|--|--|--|--|--|--|--|--|--|--|--|--|--|
------16p-14~-------12~-|--------17p12-17~-------|--|--|------19--17~---------|
------------------------|------------------------|--|--|----------------------|
------------------------|------------------------|--|--|----------------------|
------------------------|------------------------|--|--|----------------------|
------------------------|------------------------|--|--|----------------------|
------------------------|------------------------|--|--|----------------------|
--|--|--|--|--|--|--|--|--|--|--|--|--|--|--|--|--|--|--|--|--|--|--|--|--|--|
--|--|--|--|--|--|--|--|--|--|--|--|--|--|--|--|--|--|--|--|--|--|--|--|--|--|
--|--|--|--|--|--|--|--|--|--|--|--|--|--|--|--|--|--|--|--|--|--|--|--|--|--|
--|--|--|--|--|--|--|--|--|--|--|--|--|--|--|--|--|--|--|--|--|--|--|--|--|--|
--|--|--|--|--|--|--|--|--|--|--|--|--|--|--|--|--|--|--|--|--|--|--|--|--|--|
--|--|--|--|--|--|--|--|--|--|--|--|--|--|--|--|--|--|--|--|--|--|--|--|--|--|
--|--|--|--|------16p-14--------------|--------------------------------|
--|--|--|--|------------------9-------|--------------------------------|
--|--|--|--|--------------------------|---------------------10-7-9-----|
--|--|--|--|--------------------------|-------------10-7-8-------------|
--|--|--|--|--------------------------|-----10-7-8---------------------|
--|--|--|--|---------------------10-7-|--8--------------------------0--|
-------------------------|--------------------------|--------------------------|
-------------------------|--------------------------|--------------------------|
-------------------------|--------------------------|--------------------------|
----------------0--------|--2--0-----2--0-----2--0--|-----2--0-----0-----------|
----------0--2-----4--0--|--------4--------4--------|--4--------4-----4--2--0~-|
----2--3-----------------|--------------------------|--------------------------|
-------------------|------------------|------------------|--|------------------|
-------------------|------------------|------------------|--|------------------|
-------------------|------------------|------------------|--|------------------|
-------------------|------------------|------------------|--|------------------|
--------0~---------|------------------|------------------|--|------------------|
-------------------|------------------|------------------|--|------------------|
--|--|--|--|--|--|--|--|--|--|--|--|--|--|--|--|--|--|--|--|--|--|--|--|--|--|
--|--|--|--|--|--|--|--|--|--|--|--|--|--|--|--|--|--|--|--|--|--|--|--|--|--|
--|--|--|--|--|--|--|--|--|--|--|--|--|--|--|--|--|--|--|--|--|--|--|--|--|--|
--|--|--|--|--|--|--|--|--|--|--|--|--|--|--|--|--|--|--|--|--|--|--|--|--|--|
--|--|--|--|--|--|--|--|--|--|--|--|--|--|--|--|--|--|--|--|--|--|--|--|--|--|
--|--|--|--|--|--|--|--|--|--|--|--|--|--|--|--|--|--|--|--|--|--|--|--|--|--|
--|--|--|------16p-14~-------12~-|--------17p12-17~-------|------------------|
--|--|--|------------------------|------------------------|------------------|
--|--|--|------------------------|------------------------|------------------|
--|--|--|------------------------|------------------------|------------------|
--|--|--|------------------------|------------------------|------------------|
--|--|--|------------------------|------------------------|------------------|
--|------19--17~-------15~-|--------14h-15p-14------|------------------|--|--|
--|------------------------|------------------------|------------------|--|--|
--|------------------------|------------------------|------------------|--|--|
--|------------------------|------------------------|------------------|--|--|
--|------------------------|------------------------|------------------|--|--|
--|------------------------|------------------------|------------------|--|--|
--|--|--|--|--|--|--|--|--|--|--|--|--|--|--|--|--|--|--|--|--|
--|--|--|--|--|--|--|--|--|--|--|--|--|--|--|--|--|--|--|--|--|
--|--|--|--|--|--|--|--|--|--|--|--|--|--|--|--|--|--|--|--|--|
--|--|--|--|--|--|--|--|--|--|--|--|--|--|--|--|--|--|--|--|--|
--|--|--|--|--|--|--|--|--|--|--|--|--|--|--|--|--|--|--|--|--|
--|--|--|--|--|--|--|--|--|--|--|--|--|--|--|--|--|--|--|--|--|
------------------|------------------------|----------------------|
------------------|------------10--10--10--|----8--7--8----8------|
------------------|------------------------|----------------------|
------------------|------------------------|----------------------|
------------------|------------------------|----------------------|
------------------|------------------------|----------------------|
------------------------|----------------------|------------------------|
------------10--10--10--|----8--7--------------|------------10--10--10--|
------------------------|----------7----9------|------------------------|
------------------------|----------------------|------------------------|
------------------------|----------------------|------------------------|
------------------------|----------------------|------------------------|
-----------------------|------------------------|--------------------12~-|
----8--7--8----10------|------------10--10--10--|----8--7--8----8--------|
-----------------------|------------------------|------------------------|
-----------------------|------------------------|------------------------|
-----------------------|------------------------|------------------------|
-----------------------|------------------------|------------------------|
----------------14--|--------------------------|
--------------------|----14----15----14--------|
--------------------|--------------------14----|
--------------------|--------------------------|
--------------------|--------------------------|
--------------------|--------------------------|
----------------------------------|-------------------------------------------|
----------------------------------|-------------------------------------------|
--11----14----12----11------------|-----------------------------------9-11-12-|
------------------------12--14----|--12--11--11-9-------------9-11-12---------|
----------------------------------|---------------12-10-10-12-----------------|
----------------------------------|-------------------------------------------|
---------------------------|------9-10-12--9-10-12--10-12-14--12-14-|
--10-----------------------|----------------------------------------|
--------------7-9-11--9-11-|--12------------------------------------|
---------------------------|----------------------------------------|
---------------------------|----------------------------------------|
---------------------------|----------------------------------------|
--15--12-14-15--14-15-17--21-21-21-19-17----|
-----------------------------------------20-|
--------------------------------------------|
--------------------------------------------|
--------------------------------------------|
--------------------------------------------|
------------------------------------------------|------------------|--|--|--|--|
--19-17-----------------------------------------|------------------|--|--|--|--|
--------19-18-16----------16--------------------|------------------|--|--|--|--|
-----------------19-17-16----19-18-16-----------|------------------|--|--|--|--|
--------------------------------------19-18-16--|------------------|--|--|--|--|
------------------------------------------------|------------------|--|--|--|--|
--|--|--|--|--|--|--|--|--|--|--|--|--|--|--|--||
--|--|--|--|--|--|--|--|--|--|--|--|--|--|--|--||
--|--|--|--|--|--|--|--|--|--|--|--|--|--|--|--||
--|--|--|--|--|--|--|--|--|--|--|--|--|--|--|--||
--|--|--|--|--|--|--|--|--|--|--|--|--|--|--|--||
--|--|--|--|--|--|--|--|--|--|--|--|--|--|--|--||



Important: The song above is NOT stored on the Chordie server. The original song is hosted at www.geocities.com. Chordie works as a search engine and provides on-the-fly formatting. Chordie does not index songs against artists'/composers' will. To remove this song please click here.

This song is displayed as text-only. Transposing and tuning is only available for chordpro-songs.

Login - add to songbook

Rating click stars to rate

Layout
Accuracy

SHARE PAGE  




You need to log in to post comments