Rapturerapesmuses

Unknown

e--------------------| |-------------------|------12-14-12-14-12--|| repeat whole thing
b--12--12--12--------| |11--11--11---------|-12-15--------------15||
g----14--14--14-11-14|*|--14--14--14-12-14-|----------------------||
d--------------------|*|-------------------|----------------------||
a--------------------| |-------------------|----------------------||
e--------------------| |-------------------|----------------------||

OR if you don't mind it an octave lower than on the cd (but much easier to play)
e----------------| |-------------|-----2--2----||
b----------------| |-------------|-3-5--5--5-3-||
g-4-2-4-2-4-2--2-|*|3-2-3-2-3--2-|4------------||
d------------4---|*|---------5---|-------------||
a----------------| |-------------|-------------||
e----------------| |-------------|-------------||

Verse: Em(7) - G - E - G A
Chorus: B - D - G x4 B
Verse, Intro, Verse,
Bridge:
 G#m-C#-A-G#m-C#
                         Chorus alot of times
Intro some more times
End on B
//**************************************************************************************************//
bass:
Intro:
g -----------------|-----------------|-----------------|---------2-------| |
d -----4-4-2-2-----|---------2-2-4-4-|---------5-5-----|-2-2-5-5---------|*|repeat about 3 times
a -2-2---------5-5-|-2-2-5-5---------|-----5-5-----5-5-|-----------0-0-1-|*|
e------------------|-----------------|-3-3-------------|-----------------| |

Verse: slide
g-----------|----------|----------|----------|
d-2-2-4-2---|----------|------6---|----------|
a---------5-|--------2s/7--7---7--|--2----4--|
e-----------|-3--3-----|----------|-3-3--5-5-|

Chorus:
x4
g---------|----7----|-------(11-9)-| |--------|
d---------|------9--|-5--5-5-7-----|*|--------|
a-2--2-2-4|-5-(5-2)-|--------------|*|--2-2-5-|
e---------|---------|(3--3-3-5)----| |--------|

Verse, Intro, Verse
Bridge:
g---|---|---|--8------|
d---|---|---|-6-6--6--|
a---|-4-|---|-----4-4-|
e-4-|---|-5-|---------|

Repeat chorus alot
Repeat intro alot

















A C# G#m
variations - click chord images
Transpose chords:
Tuning:
Cool service:
View: Size:
A  A  A
Rating:
Layout:
  • Currently 3.1/5 Stars.
  • 1
  • 2
  • 3
  • 4
  • 5
 
Accuracy:
  • Currently 2.6/5 Stars.
  • 1
  • 2
  • 3
  • 4
  • 5
 
click stars to rate
Chordie recommends:
Check out JamPlay.com for online video guitar lessons
Songbook:
Login to add this song to your songbook
Support the artist
Preview/buy this song
MSN Music
Why this non-profit ad?

 
login to add comments/video/corrections