Chordie logo


Big jack   Ac/Dc


AC/DC:  BIG JACK (Album, Black Ice)

Intro:

ANGUS
|-------------|
|-------------|
|-4---4-----4-|
|-4-2-4-2-2-4-|
|-2-2-2-2-2-2-|
|---0---0-0---|

Verse:

ANGUS & MALCOM
|--------------------------------------------:||
|--------------------------------------------:||
|--------------------------------------------:||
|-4-4-----------4*-4---4-4-4-4-4-4-:|| X4
|-0h2-2-5-4-2--2-2-0h2-0h2-0h2-:||
|------------------0----------0-------------:||
         

|---------------------:||     |-0-|
|---------------------:||     |-2-|
|---------------------:||     |-3-|
|-4-4-4-4-4-4-----4-4-:|| X4  |-0-| (On 4th time, play D,
|-2-2-0h2-0h2-5-4-2-2-:||     |-0-|  instead of last B)
|---------------------:||     |-0-|

Chorus:

ANGUS 
|----------|-7-8-8-7-8-0----------------------------------:||
|-13-13-13-|-8-8-8-8-8-0-7-8-8-7-8-0----------------------:||
|-12-12-12-|-------------7-7-7-7-7-0-6-7-6-7-6-6-7-6-7-6--:||
|----------|----------------------------------7---------7-:||X4
|----------|----------------------------------------------:||
|----------|----------------------------------------------:||

MALCOM:                                     End on:
|-0-0-0-0--|-0-000-0-000-------------:||    |-----|
|-3-3-3-3--|-3-333-3-333-------------:||    |-----|
|-2-2-2-2--|-0-000-2-222-2-222-2-222-:||    |-2---|
|-0-0-0-0--|-0-000-0-000-2-222-2-222-:||X4  |-2-2-|
|-0-0-0-0--|-0-000-0-000-0-000-0-000-:||    |-0-2-|
|----------|-3-333-------------------:||    |---0-|

Verse 2 = Verse 1
Chorus 2 = Chorus 1

MALCOM, SOLO
|-------------|-------------|---| |-------:||
|-------------|-------------|---| |-------:||
|-------------|-------------|-4-| |-4-7-9-:||
|-4-4---7-6-4-|-4-4---7-6-4-|-4-| |-4-7-9-:||X4
|-0h2-2-5-4-2-|-0h2-2-5-4-2-|-2-| |-2-5-7-:||
|-----0-------|-----0-------|---| |-------:||

|-----------------------------|
|-----------------------------|
|----------7------------------|
|----------7-9----------------|
|-77777777-5-77777777-5555555-|
|-----------------------------|


Sorry dat hij niet helemaal erop staat :S


Important: The song above is NOT stored on the Chordie server. The original song is hosted at www.gitaartabs.nl. Chordie works as a search engine and provides on-the-fly formatting. Chordie does not index songs against artists/composers will. To remove this song please click here.

This song is displayed as text-only. Transposing and tuning is only available for chordpro-songs.

Login - add to songbook

Rating click stars to rate

Layout
Accuracy

SHARE PAGE  




You need to log in to post comments