Chordie logo

Use somebody   Kings Of Leon


Intro:
Guitar 1
e|-------------------------------------------------------------------|
B|-------------------------------------------------------------------|
G|---9--9--9--9---9--9--9--9---2-2-2-2--2-2-2-2----------------------|
D|--10-10-10-10--10-10-10-10---3-3-3-3--3-3-3-3----------------------| x2
A|--10-10-10-10--10-10-10-10---3-3-3-3--3-3-3-3----------------------|
E|---8--8--8--8---0--0--0--0---1-1-1-1--1-1-1-1----------------------|
    Oowooohooo   Oowooohooo

Guitar 2
e|---0-0-0-0-0-0-0-0-0-0-0-0-0-0-0-0---------------------------------|
B|---5-5-5-5-5-5-5-5-5-5-5-5-5-5-5-5---------------------------------|
G|---4-4-4-4-4-4-4-4-4-4-4-4-4-4-4-4---------------------------------|
D|-------------------------------------------------------------------| x3
A|-------------------------------------------------------------------|
E|-------------------------------------------------------------------|

Guitar 1
e|-------------------------------------------------------------------|
B|-------------------------------------------------------------------|
G|---6-6-6-6---9--9--9--9--2-2-2-2--2-2-2-2--------------------------|
D|---7-7-7-7--10-10-10-10--3-3-3-3--3-3-3-3--------------------------| x2
A|---7-7-7-7--10-10-10-10--3-3-3-3--3-3-3-3--------------------------|
E|---5-5-5-5---8--8--8--8--1-1-1-1--1-1-1-1--------------------------|
                                    ^
                                    hold here second time thru
Guitar 2
e|----0--0--0--0--0--0--0--0--0--------0--0--0--0--0--0--1-----------|
B|---12-12-12-13-13-13-15-15-15b17r15-15-13-13-13-12-12--1 hold------|
G|-------------------------------------------------------------------|
D|-------------------------------------------------------------------|
A|-------------------------------------------------------------------|
E|-------------------------------------------------------------------|


Verse 1:
Guitar 1
e|-------------------------------------------------------------------|
B|-------------------------------------------------------------------|
G|---9--9--9--9---9--9--9--9---2-2-2-2--2-2-2-2----------------------|
D|--10-10-10-10--10-10-10-10---3-3-3-3--3-3-3-3----------------------| x2
A|--10-10-10-10--10-10-10-10---3-3-3-3--3-3-3-3----------------------|
E|---8--8--8--8---0--0--0--0---1-1-1-1--1-1-1-1----------------------|
    I've been roaming around, always looking down and all I see 
    Painted faces, build the places I cant reach 


e|-------------------------------------------------------------------|
B|-------------------------------------------------------------------|
G|---6-6-6-6---9--9--9--9--2-2-2-2--2-2-2-2--------------------------|
D|---7-7-7-7--10-10-10-10--3-3-3-3--3-3-3-3--------------------------| x2
A|---7-7-7-7--10-10-10-10--3-3-3-3--3-3-3-3--------------------------|
E|---5-5-5-5---8--8--8--8--1-1-1-1--1-1-1-1--------------------------|
     You know that I could use somebody
     You know that I could use somebody


Verse 2:
Guitar 1
e|-------------------------------------------------------------------|
B|-------------------------------------------------------------------|
G|---9--9--9--9---9--9--9--9---2-2-2-2--2-2-2-2----------------------|
D|--10-10-10-10--10-10-10-10---3-3-3-3--3-3-3-3----------------------| x2
A|--10-10-10-10--10-10-10-10---3-3-3-3--3-3-3-3----------------------|
E|---8--8--8--8---0--0--0--0---1-1-1-1--1-1-1-1----------------------|
    Someone like you, And all you know, And how you speak 
    Countless lovers under cover of the street 

Guitar 2  p.m
e|---0--0-0--0-0-0---0--0-0--0-0-0-----------------------------------|
B|---5--5-5--5-5-5---5--5-5--5-5-5-----------------------------------|
G|---4--4-4--4-4-4---4--4-4--4-4-4-----------------------------------|
D|-------------------------------------------------------------------| x2
A|-------------------------------------------------------------------|
E|-------------------------------------------------------------------|

Guitar 1
e|-------------------------------------------------------------------|
B|-------------------------------------------------------------------|
G|---6-6-6-6---9--9--9--9--2-2-2-2--2-2-2-2--------------------------|
D|---7-7-7-7--10-10-10-10--3-3-3-3--3-3-3-3--------------------------| x2
A|---7-7-7-7--10-10-10-10--3-3-3-3--3-3-3-3--------------------------|
E|---5-5-5-5---8--8--8--8--1-1-1-1--1-1-1-1--------------------------|
     You know that I could use somebody
     You know that I could use somebody
     Someone like you

Guitar 2  p.m
e|---0--0-0--0-0-0---0--0-0--0-0-0-----------------------------------|
B|---5--5-5--5-5-5---5--5-5--5-5-5-----------------------------------|
G|---4--4-4--4-4-4---4--4-4--4-4-4-----------------------------------|
D|-------------------------------------------------------------------| x2
A|-------------------------------------------------------------------|
E|-------------------------------------------------------------------|



Chorus:
Guitar 1
e|-------------------------------------------------------------------|
B|-------------------------------------------------------------------|
G|---9--9--9--9---9--9--9--9---2-2-2-2--2-2-2-2----------------------|
D|--10-10-10-10--10-10-10-10---3-3-3-3--3-3-3-3----------------------| x2
A|--10-10-10-10--10-10-10-10---3-3-3-3--3-3-3-3----------------------|
E|---8--8--8--8---0--0--0--0---1-1-1-1--1-1-1-1----------------------|
    Oowooohooo   Oowooohooo

Guitar 2
e|---0-0-0-0-0-0-0-0-0-0-0-0-0-0-0-0---------------------------------|
B|---5-5-5-5-5-5-5-5-5-5-5-5-5-5-5-5---------------------------------|
G|---4-4-4-4-4-4-4-4-4-4-4-4-4-4-4-4---------------------------------|
D|-------------------------------------------------------------------| x2
A|-------------------------------------------------------------------|
E|-------------------------------------------------------------------|

Guitar 1
e|-------------------------------------------------------------------|
B|-------------------------------------------------------------------|
G|---6-6-6-6---9--9--9--9--2-2-2-2--2-2-2-2--------------------------|
D|---7-7-7-7--10-10-10-10--3-3-3-3--3-3-3-3--------------------------| x2
A|---7-7-7-7--10-10-10-10--3-3-3-3--3-3-3-3--------------------------|
E|---5-5-5-5---8--8--8--8--1-1-1-1--1-1-1-1--------------------------|

Guitar 2
e|----0--0--0--0--0--0--0--0------0-0-0-0-0-0-0-0-0-0-0-0-0-0-0-0----|
B|---12-12-12-13-13-13-15-15--x2--8-8-8-6-6-6-8-8-3-3-3-1-1-1-1-1----|
G|-------------------------------------------------------------------|
D|-------------------------------------------------------------------|x2
A|-------------------------------------------------------------------|
E|-------------------------------------------------------------------|


Verse 3:
Guitar 1
e|-------------------------------------------------------------------|
B|-------------------------------------------------------------------|
G|---9--9--9--9---9--9--9--9---2-2-2-2--2-2-2-2----------------------|
D|--10-10-10-10--10-10-10-10---3-3-3-3--3-3-3-3----------------------| x2
A|--10-10-10-10--10-10-10-10---3-3-3-3--3-3-3-3----------------------|
E|---8--8--8--8---0--0--0--0---1-1-1-1--1-1-1-1----------------------|
    Off in the night, while you live it up, I'm off to sleep 
    Waging wars to shape the poet and the beat 


Guitar 1
e|-------------------------------------------------------------------|
B|-------------------------------------------------------------------|
G|---6-6-6-6---9--9--9--9--2-2-2-2--2-2-2-2--------------------------|
D|---7-7-7-7--10-10-10-10--3-3-3-3--3-3-3-3--------------------------| x2
A|---7-7-7-7--10-10-10-10--3-3-3-3--3-3-3-3--------------------------|
E|---5-5-5-5---8--8--8--8--1-1-1-1--1-1-1-1--------------------------|
     I hope it's gunna make you notice
     I hope it's gunna make you notice
     Someone like me

Guitar 2 
e|---0--0-0--0-0-0---0--0-0--0-0-0-----------------------------------|
B|---5--5-5--5-5-5---5--5-5--5-5-5-----------------------------------|
G|---4--4-4--4-4-4---4--4-4--4-4-4-----------------------------------|
D|-------------------------------------------------------------------| x2
A|-------------------------------------------------------------------|
E|-------------------------------------------------------------------|



Chorus:
Guitar 1
e|-------------------------------------------------------------------|
B|-------------------------------------------------------------------|
G|---9--9--9--9---9--9--9--9---2-2-2-2--2-2-2-2----------------------|
D|--10-10-10-10--10-10-10-10---3-3-3-3--3-3-3-3----------------------| x2
A|--10-10-10-10--10-10-10-10---3-3-3-3--3-3-3-3----------------------|

E|---8--8--8--8---0--0--0--0---1-1-1-1--1-1-1-1----------------------|
    Oowooohooo   Oowooohooo
    Someone like me

Guitar 2
e|---0-0-0-0-0-0-0-0-0-0-0-0-0-0-0-0---------------------------------|
B|---5-5-5-5-5-5-5-5-5-5-5-5-5-5-5-5---------------------------------|
G|---4-4-4-4-4-4-4-4-4-4-4-4-4-4-4-4---------------------------------|
D|-------------------------------------------------------------------| x2
A|-------------------------------------------------------------------|
E|-------------------------------------------------------------------|

Guitar 1
e|-------------------------------------------------------------------|
B|-------------------------------------------------------------------|
G|---6-6-6-6---9--9--9--9--2-2-2-2--2-2-2-2--------------------------|
D|---7-7-7-7--10-10-10-10--3-3-3-3--3-3-3-3--------------------------| x2
A|---7-7-7-7--10-10-10-10--3-3-3-3--3-3-3-3--------------------------|
E|---5-5-5-5---8--8--8--8--1-1-1-1--1-1-1-1--------------------------|
     Someone like me somebody

Guitar 2
e|----0--0--0--0--0--0--0--0------0-0-0-0-0-0-0-0-0-0-0-0-0-0-0-0----|
B|---12-12-12-13-13-13-15-15--x2--8-8-8-6-6-6-8-8-3-3-3-1-1-1-1-1----|
G|-------------------------------------------------------------------|
D|-------------------------------------------------------------------|
A|-------------------------------------------------------------------|
E|-------------------------------------------------------------------|

Guitar 2
e|----0--0--0--0--0--0--0--0--0--------0--0--0--0--0--0-
B|---12-12-12-13-13-13-15-15-15b17r15-15-13-13-13-12-12-
G|------------------------------------------------------
D|------------------------------------------------------
A|------------------------------------------------------
E|------------------------------------------------------

e|-0-0-0-0-0-0-0-0-0-0-0-0-0-0-0-0---|
B|-8-8-8-6-6-6-8-8-3-3-3-1-1-1-1-1---|
G|-----------------------------------|
D|-----------------------------------|
A|-----------------------------------|
E|-----------------------------------|


Bridge:
Guitar 1 and Guitar 2
e|-------------------------------------------------------------------|
B|-------------------------------------------------------------------|
G|--11-11-11-11-11-11-11-11-----3-3-3-3-3-3-3-3----------------------|
D|--12-12-12-12-12-12-12 12-x2--4-4-4-4-4-4-4-4-x2-------------------|
A|--12-12-12-12-12-12-12-12-----4-4-4-4-4-4-4-4----------------------|
E|--10-10-10-10-10-10-10-10-----2-2-2-2-2-2-2-2----------------------|
    (Dont let it out  Dont let it out)

e|-------------------------------------------------------------------|
B|-------------------------------------------------------------------|
G|--11-11-11-11-11-11-11-11-3-3-3-3-3-3------------------------------|
D|--12-12-12-12-12-12-12 12-4-4-4-4-4-4------------------------------|
A|--12-12-12-12-12-12-12-12-4-4-4-4-4-4-2/7--------------------------|
E|--10-10-10-10-10-10-10-10-2-2-2-2-2-2-2/7--------------------------|
    (Dont let it out  Dont let it out)



Solo:
Guitar 1
e|-------------------------------------------------------------------|
B|-------------------------------------------------------------------|
G|---6-6-6-6---9--9--9--9--2-2-2-2--2-2-2-2--------------------------|
D|---7-7-7-7--10-10-10-10--3-3-3-3--3-3-3-3--------------------------| x5
A|---7-7-7-7--10-10-10-10--3-3-3-3--3-3-3-3--------------------------|
E|---5-5-5-5---8--8--8--8--1-1-1-1--1-1-1-1--------------------------|
     Someone like you Someone like you
     Someone like you somebody

Guitar 2
e|-------------------------------------------------------------------|
B|----------------------------------6-6-6-6-5------5b6r5-3-----------|
G|--9-9-9-9/12-12-12-12---------------------hold-----------5---------|
D|----------------------10-10-10-10----------------------------------| x4
A|-------------------------------------------------------------------|
E|-------------------------------------------------------------------|

Guitar 2
e|-------------------------------------------------------------------|
B|-------------------------------------------------------------------|
G|--9-9-9-9/12-12-12-12-5-5-5-5-3-3-3-2-0-2b3-hold-------------------|
D|-------------------------------------------------------------------|
A|-------------------------------------------------------------------|
E|-------------------------------------------------------------------|


Outro:
Guitar 1
e|-------------------------------------------------------------------|
B|-------------------------------------------------------------------|
G|---9--9--9--9---9--9--9--9---2-2-2-2--2----------------------------|
D|--10-10-10-10--10-10-10-10---3-3-3-3--3-hold-----------------------|
A|--10-10-10-10--10-10-10-10---3-3-3-3--3----------------------------|
E|---8--8--8--8---0--0--0--0---1-1-1-1--1----------------------------|
    I've been roamin around always lookin' down and all I see


succes ermee!


Important: The song above is NOT stored on the Chordie server. The original song is hosted at www.gitaartabs.nl. Chordie works as a search engine and provides on-the-fly formatting. Chordie does not index songs against artists/composers will. To remove this song please click here.

This song is displayed as text-only. Transposing and tuning is only available for chordpro-songs.

Login - add to songbook

Rating click stars to rate

Layout
Accuracy

SHARE PAGE  

You need to log in to post comments