This is the life

Amy Macdonald

 C#m
 Oh the wind whistles down
 A
 The cold dark street tonight
 E
 And the people they were dancing
 G#m
 To the music vibe

And the boys chase the girls, with curls in their hair
While the shocked too many sit way over there
And the songs get louder each one better than before

And you singing the song thinking this is the life
And you wake up in the morning and your head feels twice the size
where you gonna go, where you gonna go, where you gonna sleep tonight?
And you singing the song thinking this is the life
And you wake up in the morning and your head feels twice the sizxe
Where you gonna go, where you gonna go, where you gonna sleep tonight?
Where you gonna sleep tonight

solo:
 C#mAEG#m
e|-----0-------0-----------0-------0-0-0-0-0-2-4-0-0-2-4-2-0-------|
B|-2-4---2-2-4---2-2-2-2-4---2-2-4---------------------------4-----|
G|-----------------------------------------------------------------|
D|-----------------------------------------------------------------|
A|-----------------------------------------------------------------|
E|-----------------------------------------------------------------|


So you're heading down the road in your taxi for 4
And you're waiting outside jimmy's front door
But nobody's in and nobody's home till 4
So you're sitting there with nothing to do
Talking about Robert Ragger and his 1 leg crew
And where you gonna go, where you gonna sleep tonight?

And you singing the song thinking this is the life
And you wake up in the morning and your head feels twice the size
Oh where you gonna go, where you gonna go, where you gonna sleep tonight?
And you singing the song thinking this is the life
And you wake up in the morning and your head feels twice the size
Where you gonna go, where you gonna go, where you gonna sleep tonight?
Where you gonna sleep tonight

solo:
 C#mAEG#m
e|-----0-------0-----------0-------0-0-0-0-0-2-4-0-0-2-4-2-0-------|
B|-2-4---2-2-4---2-2-2-2-4---2-2-4---------------------------4-----|
G|-----------------------------------------------------------------|
D|-----------------------------------------------------------------|
A|-----------------------------------------------------------------|
E|-----------------------------------------------------------------|


And you singing the song thinking this is the life
And you wake up in the morning and your head feels twice the size
Oh where you gonna go, where you gonna go, where you gonna sleep tonight?
And you singing the song thinking this is the life
And you wake up in the morning and your head feels twice the size
where you gonna go, where you gonna go, where you gonna sleep tonight?

Where you gonna sleep tonight?

Bedankt voor het bekijken!!! ;-)


A C#m E G#m
variations - click chord images
Transpose chords:
Tuning:
Cool service:
View: Size:
A  A  A
Rating:
Layout:
  • Currently 5/5 Stars.
  • 1
  • 2
  • 3
  • 4
  • 5
 
Accuracy:
  • Currently 4.5/5 Stars.
  • 1
  • 2
  • 3
  • 4
  • 5
 
click stars to rate
Chordie recommends:
Check out JamPlay.com for online video guitar lessons
Songbook:
Login to add this song to your songbook
Support the artist
Preview/buy this song
MSN Music
Why this non-profit ad?

 
login to add comments/video/corrections