Chordie logo


Pink panther   Pink Panther


Pink Panther

Dropped D tuning

E-----------------------------------------------------------------------------
B-----------------------------------------------------------------------------
G-----------------------------------------------------------------------------
D-----------------------------------------------------------------------------
A-----------------------3-2-----2-1-------0-----------------------------------
D---1-2---4-5---1-2-4-5-----2-5-------------5-2-0-2---------------------------


E-----------------------------------------------------------------------------
B-----------------------------------------------------------------------------
G-----------------------------------------------------------------------------
D-------------------------------2-1~~~~~~~~~~---------------------------------
A-----------------------3-2---------------------------------------------------
D---1-2---4-5---1-2-4-5-----2-5-----------------------------------------------


E-----------------------------------------------------------------------------
B-----------------------------------------------------------------------------
G-----------------------------------------------------------------------------
D-----------------------------------------------------------------------------
A-----------------------3-2-----2-1-------0-----------------------------------
D---1-2---4-5---1-2-4-5-----2-5-------------5-2-0-2---------------------------


E-----------------------------------------------------------------------------
B-----------------------------------------------------------------------------
G-----------------------------------------7-9\--------------------------------
D---2-0-----------------------------------7-9\--------------------------------
A-------2-0-------------------------------5-7\--------------------------------
D-----------5-2--/7-/7-/7-/7-5\2-0-2-2----------------------------------------



Hi I have got a lot from this site and so I thought 
I'd give something (small as it is back).
I am no guitar player so this may be complete garbage 
but here goes

	              PINK PANTHER
                     --------------

  -------------------------------------------------------
  -------------------------------------------------------
  --------------------------8-7-----7-(6)----------------
  --------3-5-7-8/3-3-5-7-8-----7-8----------------------
  -------------------------------------------------------
  -------------------------------------------------------



  -------------------------------------------------------
  ----------------------------------7-(6)----------------
  --------------------------8-7--------------------------
  --------3-5-7-8/3-3-5-7-8-----7-8----------------------
  -------------------------------------------------------
  -------------------------------------------------------



  -------------------------------------------------------
  ----7-5---------2-1-2-1-2-1----------------------------
  --------7-5-3---------------3-5-3----------------------
  --------------5-------------------5-3-5----------------
  -------------------------------------------------------


Important: The song above is NOT stored on the Chordie server. The original song is hosted at www.gitaartabs.nl. Chordie works as a search engine and provides on-the-fly formatting. Chordie does not index songs against artists/composers will. To remove this song please click here.

This song is displayed as text-only. Transposing and tuning is only available for chordpro-songs.

Login - add to songbook

Rating click stars to rate

Layout
Accuracy

SHARE PAGE  




You need to log in to post comments