Guitar Tabs, Chords and Lyrics


Angels  Misc. Gospel

I don't know of a way to convey the strumming rhythm so try and
listen to the song on a CD/Tape and mimic it, it's consistent
throughout the song

Strumming only bottom three strings
1st Guitar - E for 4 measures
2nd Guitar - comes in on 5th measure playing E
     The touch of His [A]hand[B] will let me [E]know
     He takes me [A]in and [B7]lets me [B]go
     If not for l[E]ove, who would [C#m]believe?
     Thy kingdom c[A]ome, Thy will be done, in [B7]you and me[B]
     We're lifted up by a[E]ngels
     Higher than the w[C#m]orld
     Strong enough to l[A]eave it
Bound to learn the secrets
     Angels never [B7]heard[B]
     Close enough to [E]heaven
     Far above the [C#m]rain
     Darkness cannot [A]reach us
Let the angels teach us
     Only love r[B7]emains[B]
     We're lifted up by [E]angels
     To unders[A]tand, [B]yet never say[E]
     How every [A]plan would f[B]ade away[B7]
     If not for l[E]ove, where would we [C#m]be?
     Ashes to d[A]ust, water to rust, e[B7]ternally[B]
     We're lifted up by [E]angels
     Higher than the [C#m]world
     Strong enough to [A]leave it
Bound to learn the secrets
     Angels never [B7]heard[B]
     Close enough to [E]heaven
     Far above the [C#m]rain
     Darkness cannot [A]reach us
Let the angels teach us
     Only love re[B7]mains[B]
     We're lifted up by [C#m]angels [E]
     Given wings to fl[A]y   [C#m7]
     Leave the night b[F]ehind us
     [Gm]Trust the light to f[A]ind us
     Even [B7]as we rise [B]
Solo
We're lifted up by angels
     Higher than the [C#m]world
     Strong enough to [A]leave it
Bound to learn the secrets
     Angels never [B7]heard[B]
     Close enough to [E]heaven
     Far above the [C#m]rain
     Darkness cannot [A]reach us
Let the angels teach us
     Only love re[B7]mains[B]
     We're lifted up by a[E]ngels

Solo
/\ 3D to slide
Again, I don't know of any way to convey tempo or rhythm here so you
have to listen to the CD and figure it out
     -0---2---4-----------5-------5-----------5----------------
     -2---4---5---4---2-------4-------2---1--------------------
     ----------------------------------------------------------
     ----------------------------------------------------------
     ----------------------------------------------------------
     ----------------------------------------------------------
     -7---5---4------------------------------------------------
     -------------7---5-----------7---9------------------------
     ---------------------8---8-----------8---6----------------
     ---------------------------------------------8---10-------
     ----------------------------------------------------------
     ----------------------------------------------------------
     ----------------------------------------------------------
     ----------------------------------------------------------
     ----------------------------------------------------------
     ----/\-----/\-----/\--------------------------------------
     --10--8--10--8--10--12------------------------------------
     ----------------------------------------------------------
     -------------5--7--5--------5--5--5--5--------------------
     --/\------5-----------6--4--------------6--4--------------
     -8--6--8--------------------------------------------------
     ----------------------------------------------------------
     ----------------------------------------------------------
     ----------------------------------------------------------
     -7--7--7--7--9--7-----------------------------------------
     -------------------4--4--4--4--7--7-----------------------
     --------------------------------------5--5--5--5--7--7----
     ----------------------------------------------------------
     ----------------------------------------------------------
     ----------------------------------------------------------
     ----------------------------------------------------------
     ----------------------------------------------------------
     -5--7--5--7-bend-----------------------------------------
     ----------------------------------------------------------
     ----------------------------------------------------------
     ----------------------------------------------------------



Important: The song above is NOT stored on the Chordie server. The original song is hosted at www.gospelmusic.org.uk. Chordie works as a search engine and provides on-the-fly formatting. Chordie does not index songs against artists'/composers' will. To remove this song please click here.

Text color:
Chord color:
Chord grids: 
Font size:    
Page size: 

A B B7 C#m C#m7 E F Gm
variations - click chord images

Login - add to songbook

Transpose chords

Tuning

Rating click stars to rate

Layout
Accuracy

SHARE PAGE  




You need to log in to post comments