Guitar Tabs, Chords and Lyrics


The Best Thing  Misc. Gospel

-Electric Guitar- |----0--|


                  |--1----|


                  |-------|

|-------|
|-------|
|-------|
[C]Well I k[G]now the r[F]oad your on
[C]And w[G]here it's leading t[F]o
[C]There a[G]in't no c[F]omming back
[C]If y[G]ou make it t[F]hrough
[Am]Well it'll cost y[G]ou e[F]verything
[Am]With n[G]othing to s[F]how for it
[C]But i[G]f you want it better c[F]hild
[C]Well h[G]ere's chance to g[F]o for it
-Chorus-
The best thing in [C]life[G]  [F]
Is definately [C]free[G]  [F]
The best thing in [C]life[G]  [F]
Is good for you and [C]me[G]  [F]

-Verse 2-
One thing's for certain
I have been taught
The key to heaven
Just can't be bought
'Cause the standard is perfection
And we're all short of it
But in came Jesus
And he was above it

-Chorus-

-Bridge-
Am G F Riff
Jesus on the cross paid the penalty
Am G F Riff
Offers back to us life eternaly
Am G F Riff
The choice is up to you just remember this
[Am]No matter what you've done [G]Jesus he for[F]gives

-Guitar Solo-

-Repeat Chorus-

-Fill-
|-------------------------|
|-------------------------|
|--------------------5^---|
|-----------------5/7--7--|
|-----3--3/5-5/7----------|
|--3/5--------------------|


-Guitar Solo-
|-------------------------------------------|
|-----------------5\------------------------|
|--4/5-5-4-5-4----5\--7^-5------------------|
|--------------7-----------5/7-5-----5------|
|--------------------------------5/7---7-3--|
|-------------------------------------------|
|-------------------------------------------|
|-------------------------------------------|
|-----------------5--5/7^-5-4/5-5-4-5-4-----|
|--------------5/7----------------------7---|
|--3--3/5-5/7-------------------------------|
|-------------------------------------------|
|--5/7-7-7-5--------------------------------|
|--6/8-8-8-6-5/6-5--------------------------|
|-------------------------10^---------------|
|------------------7/9/10-------------------|
|-------------------------------------------|
|-------------------------------------------|


-if you like this song, visit my web page at
http://www.latech.edu/~dmcneal/ccm_index.html


Important: The song above is NOT stored on the Chordie server. The original song is hosted at www.gospelmusic.org.uk. Chordie works as a search engine and provides on-the-fly formatting. Chordie does not index songs against artists'/composers' will. To remove this song please click here.

Text color:
Chord color:
Chord grids: 
Font size:    
Page size: 

Am C F G
variations - click chord images

Login - add to songbook

Transpose chords

Tuning

Rating click stars to rate

Layout
Accuracy

SHARE PAGE  




You need to log in to post comments