Guitar Tabs, Chords and Lyrics


I FEEL LIKE TRAVELING ON   Misc. Gospel



Some Bluegrass flatpicking


                      I  FEEL  LIKE  TRAVELING  ON


    G                                                                   
E--------------3-----|--3--3--3--3--3-----|-----------------|-----------
B-----------0--3--x--|--3--3--3--3--3--x--|-----------------|-----------
G--------0-----------|--------------------|--0--2--4--2--0--|--4--2-----
D---0h2--------------|--------------------|-----------------|-----------
A--------------------|--------------------|-----------------|-----------
E--------------------|--------------------|-----------------|-----------
                                                                        

       D        G                                                       
E---------|--------------|-----------------------|----------------|-----
B---------|--------------|-----------------------|----------------|-----
G---0-----|--2--0--x--x--|-----------------0--x--|----------------|-----
D------4--|--------------|----------0h2p0--------|----------------|-----
A---------|--------------|--0--1h2---------------|--1p0-----------|-----
E---------|--------------|-----------------------|-------3--x--x--|-----
                                                                        

                                                                        
E---------------------------------------|----------0--3-----------|-----
B---------------------------------------|-------3--------3--x--x--|-----
G---------0--4--x--4--x--5--4--2--0--x--|--3h4--------------------|-----
D---0--2--------------------------------|-------------------------|-----
A---------------------------------------|-------------------------|-----
E---------------------------------------|-------------------------|-----
                                                                        

                                     D     A7    D7          G          
E------------------------------------------0-----2--------|-------------
B--------------0--x--0--p0--------0--------2-----1--------|-------------
G-----------0---------------2--0-----2--x--0-----2--------|-------0-----
D---0--0h2---------------------------------2--x--0--x--x--|--0h2--------
A---------------------------------------------------------|-------------
E---------------------------------------------------------|-------------
                                                                        

                                                                        
E--------------------------|------------0--3-----------|--7--x--5\3-----
B---0--x--0--x--1p0--------|---------3--------3--x--x--|----------------
G--------------------2--0--|--2h3h4--------------------|----------------
D--------------------------|---------------------------|----------------
A--------------------------|---------------------------|----------------
E--------------------------|---------------------------|----------------
                                                                        

                                        D     G                         
E---0--------|--------------------------------------|-------------------
B------3--x--|--------------------------------------|-------------------
G------------|--0--2--4--2--0--4--2--0-----2--0--x--|-------------------
D------------|--------------------------4-----------|----------0--2-----
A------------|--------------------------------------|--0--1h2-----------
E------------|--------------------------------------|-------------------
                                                                        

                                                                        
E-----------------------------------------------------------------------
B-----------------------------------------------------------------------
G------0----------------------------------------------------------------
D---0-------------------------------------------------------------------
A-----------------------------------------------------------------------
E-----------------------------------------------------------------------
                                                                        




Important: The song above is NOT stored on the Chordie server. The original song is hosted at www.gospelmusic.org.uk. Chordie works as a search engine and provides on-the-fly formatting. Chordie does not index songs against artists'/composers' will. To remove this song please click here.

This song is displayed as text-only. Transposing and tuning is only available for chordpro-songs.

Login - add to songbook

Rating click stars to rate

Layout
Accuracy

SHARE PAGE  




You need to log in to post comments