Guitar Tabs, Chords and Lyrics


I SAW THE LIGHT   Misc. Gospel



Bluegrass flatpicking

                           I  SAW  THE  LIGHT


       G                                                           C    
E------||--------------------------------|----------------------|-------
B------||--------------------------3--x--|----------------------|-------
G---0--||*--------------0--x--2/4--------|-------------0--x--x--|-------
D------||*--0--0--x--2-------------------|--0--0--0h2-----------|--0----
A------||--------------------------------|----------------------|-------
E------||--------------------------------|----------------------|-------
                                                                        

                                           G                            
E---------------------------|-----------------3-----|-------------------
B---------------------------|-----------------0-----|-------------------
G-------0--x--0h2--0--------|--3--2--0--------0-----|--------------0----
D---h2----------------2--x--|-----------2--0--0--x--|--0--0--x--2-------
A---------------------------|-----------------2-----|-------------------
E---------------------------|-----------------3-----|-------------------
                                                                        

                                                                        
E-----------------|----------------------|------------------------------
B-----------3--x--|----------------------|----------3--x--5--3----------
G---x--2/4--------|-------------0--x--x--|--0--2/4--------------4\2-----
D-----------------|--0--0--0h2-----------|------------------------------
A-----------------|----------------------|------------------------------
E-----------------|----------------------|------------------------------
                                                                        

                       D7    G                                          
E---------|-------------------------------------|-----------------------
B---------|-------------------------------------|-----------------------
G---0--x--|--2/4--4--0h2--0--x------------------|------------0--x--x----
D---------|---------------------2p0-------------|-------0h2-------------
A---------|--------------------------1p0--------|--1h2------------------
E---------|-------------------------------3--x--|-----------------------
                                                                        

     2x       2nd ending                                                
E----||-------------------------------|-----------------|---------------
B----||----------3--x--3--5--3--x--x--|-----------------|---------------
G---*||--0--2/4-----------------------|--0--2--4--2--0--|--4--2--0------
D---*||-------------------------------|-----------------|---------------
A----||-------------------------------|-----------------|---------------
E----||-------------------------------|-----------------|---------------
                                                                        

    D        G                                                          
E------|--------------|-------------------------------------------------
B------|--------------|-------------------------------------------------
G------|--2--0--x--x--|------------------0------------------------------
D---4--|--------------|----------0--2p0---------------------------------
A------|--------------|--0--1h2-----------------------------------------
E------|--------------|-------------------------------------------------
                                                                        





Important: The song above is NOT stored on the Chordie server. The original song is hosted at www.gospelmusic.org.uk. Chordie works as a search engine and provides on-the-fly formatting. Chordie does not index songs against artists'/composers' will. To remove this song please click here.

This song is displayed as text-only. Transposing and tuning is only available for chordpro-songs.

Login - add to songbook

Rating click stars to rate

Layout
Accuracy

SHARE PAGE  




You need to log in to post comments