Guitar Tabs, Chords and Lyrics


I Surrender All   Misc. Gospel




Arr. Bobby Cohoon 
                                I Surrender All                                 


                                                                         
E||-----------------------|----------------------|----------------------|
B||-----------------------|----------------------|----------------------|
G||*----------------------|----------------------|------------0---------|
D||*--4------4--5----4----|--2------2--4----2----|--0------0-------4----|
A||-----------------------|--0-------------------|----------------------|
D||---0-------------------|----------------------|--5-------------------|


                                                                    
---------------------|----------------------|----------------------|
---------------------|----------------------|----------------------|
---------------------|----------------------|----------------------|
--2----4-------------|--4------4--5\---4----|--2------2--4----2----|
--0---------5--------|--5------5/-7----5----|--4------4--2----0----|
------------0--------|--0-------------------|----------------------|


                                                                        
----------------------|----------------------||--10------9---7----5----|
----------------------|----------------------||--7-------10--7----3----|
----------------------|---------------------*||--------------6----4----|
--0------0--5----4----|--2----4----0--------*||------------------------|
--2---------4----5----|--4----0----0---------||----------0-------------|
--5-------------------|------------0---------||--0-----------0----0----|


                         A/A             A#dim                        
--3-------------------|--9-------7--5----3----|--2-------------------|
--2-------------------|--10---------6----2----|--3-------------------|
--2--------------2----|-------------6----3----|----------------------|
------------2---------|------------------2----|-----------------2----|
--0----4--------------|--0----------0---------|-------0----4---------|
----------------------|-----------------------|--0-------------------|


                                                                        
--2------5--7----5----|--10------9---9-----7----|--5------3--2---------|
--3------7--6----7----|--12------10--10----6----|--7---------2----5----|
---------6--7----5----|--0-----------------7----|------------2----6----|
------------6---------|--------------------6----|-----------------5----|
---------0------------|-------------------------|------------0---------|
--0-------------------|-------------------------|--0-------------------|


                     
-------------------||
--3----------------||
--2----------------||
--4----------------||
--5----------------||
--0----------------||




Important: The song above is NOT stored on the Chordie server. The original song is hosted at www.gospelmusic.org.uk. Chordie works as a search engine and provides on-the-fly formatting. Chordie does not index songs against artists'/composers' will. To remove this song please click here.

This song is displayed as text-only. Transposing and tuning is only available for chordpro-songs.

Login - add to songbook

Rating click stars to rate

Layout
Accuracy

SHARE PAGE  




You need to log in to post comments