Guitar Tabs, Chords and Lyrics


The Lord of the Dance   Misc. Gospel



This arrangement is best suited to a classical guitar and playing style

The Lord of the Dance

4/4


   Verse     G                                    Am                            
|------|---------------------|-----------------|------------------|-------------
|------|---------0-----0--1--|--3--3--0--0--0--|---------------0--|-------------
|------|--0---0-----2--------|--0--0--0--------|---2--2--2--2-----|-------------
|---0--|--0---0--------------|-----------------|---2-----2--------|-------------
|------|---------------------|--2--2-----------|---0-----0--------|-------------
|------|--3---3--------------|--------3--------|------------------|-------------
                                                                                

D7                    G                                                         
-------------------|---------------------|--------------|-----------------------
-1--0--------------|---------0-----0--1--|--3--3--0--0--|-----------------------
-------2--0--------|---0--0-----2--------|--0--0--0-----|-----------------------
-0-----------4--0--|---0--0--------------|--------------|-----------------------
-------------------|---------------------|--2--2--------|-----------------------
-------------------|---3--3--------------|--------3-----|-----------------------
                                                                                

Am        D7        G   C   G       Chorus G                                    
-----------------|--------------||------------------|---------------------------
-------0---------|--------------||---3-----0--------|---------------------------
-2--2---------2--|---0---0---0--||---0-----0-----2--|---------------------------
-----------0-----|-------2---0--||---0-----0--------|---------------------------
-0--3------------|-------3------||------------------|---------------------------
-----------------|-----------3--||---3--3--3--3-----|---------------------------
                                                                                

                                             D7                                 
---------------------|--------------------|---------------|---------------------
0--1--0--------------|--0--0--1--3--1--0--|---------------|---------------------
---------2--0-----0--|--------------------|---2--2--2-----|---------------------
------0--------0-----|-----0--------0-----|---0--------0--|---------------------
---------------------|--------------------|------3--2--0--|---------------------
3-----------3--------|--3--------3--------|---------------|---------------------
                                                                                

G                                          Am     D7                            
----------------|-----------------------|-------------------|-----------||------
----------------|--0-----0--1--3--1--0--|----------0--------|-----------||------
-0--0--0-----2--|-----2-----------------|---2--2---------2--|--0--0--0--||------
-0--0--0--------|-----------------------|-------------0-----|-----2--0--||------
----------------|--------------2--------|---3--3------------|-----3-----||------
-3--3--3--3-----|--3--------------------|-------------------|--------3--||------


Important: The song above is NOT stored on the Chordie server. The original song is hosted at www.gospelmusic.org.uk. Chordie works as a search engine and provides on-the-fly formatting. Chordie does not index songs against artists'/composers' will. To remove this song please click here.

This song is displayed as text-only. Transposing and tuning is only available for chordpro-songs.

Login - add to songbook

Rating click stars to rate

Layout
Accuracy

SHARE PAGE  




You need to log in to post comments