Guitar Tabs, Chords and Lyrics


Old Gospel Ship  Misc. Gospel

    [C]                                                                           
E---------------|-------------|-------------|---------------------|-----
B---------------|-------------|-------------|---------------------|-----
G---------0--x--|--0-----0h2--|--0-----0h2--|--2p0----------------|-----
D------2--------|-----2-------|-----2-------|-------2p0-----------|-----
A---3-----------|-------------|-------------|------------3--x--x--|-----
E---------------|-------------|-------------|---------------------|-----

                                                 [G]                             
E--------------------|----------------|----------------|----------------
B--------------------|----------------|----------------|----------------
G--------------------|----------0--x--|--2p0-----------|----------------
D------0--0h2--x--x--|--2--2h3--------|-------2--0--x--|--------0-------
A---3----------------|----------------|----------------|--0--2----------
E--------------------|----------------|----------------|-----------3----

             [C]                                                                 
E---------|-------------|-------------|----------------|----------------
B---------|-------------|-------------|----------------|----------------
G---------|-------0--0--|-----0h2--x--|--0-----0h2--0--|----------------
D---------|--0h2--------|--2----------|-----2----------|--2p0-----------
A---------|-------------|-------------|----------------|-------3--x-----
E---x--x--|-------------|-------------|----------------|----------------

                        [G]                          [C]                            
E------|-------------|----------------|-----------------|---------------
B------|-------------|----------------|-----------------|---------------
G------|-------0--x--|----------------|-----------------|---------------
D------|--0h2--------|--0h2--0--x--x--|-----------------|--0h2----------
A---x--|-------------|----------------|-----0--3--x--x--|-------3--x----
E------|-------------|----------------|--3--------------|---------------

                [F]                                        [C]                      
E---0--------|-------------------|----------------|---------------------
B---1--------|-------------1--x--|-----1--x-------|---------------------
G---0--------|--0--x--0h2--------|--2--------0h2--|--2--0--x-----0------
D---2--------|-------------------|----------------|-----------2---------
A---3--x--x--|-------------------|----------------|---------------------
E------------|-------------------|----------------|---------------------

                [F]                          [C]            [G]                        
E------------|-------------|-----------|-----------------3--------|-----
B------------|-------1--x--|-----3--1--|-----------------0--------|-----
G---0--x--x--|--0h2--------|--2--------|--2--0-----0-----0--------|-----
D------------|-------------|-----------|--------3-----0--0--------|-----
A------------|-------------|-----------|-----------------2--------|-----
E------------|-------------|-----------|-----------------3--x--x--|-----

    [C]                                                                          
E--------------|-------------|----------------|----------------|--------
B--------------|-------------|----------------|----------------|--------
G--------0--0--|-----0h2--x--|--0-----0h2--0--|----------------|--------
D---0h2--------|--2----------|-----2----------|--2p0-----------|--0-----
A--------------|-------------|----------------|-------3--x--x--|--------
E--------------|-------------|----------------|----------------|--------

                      [G]                  [C]                                      
E-------------|----------------|-----------------|----------------------
B-------------|----------------|-----------------|----------------------
G-------0--x--|----------------|-----------------|----------------------
D---h2--------|--0h2--0--x--x--|-----------------|--0h2-----------------
A-------------|----------------|-----0--3--x--x--|-------3--x-----------
E-------------|----------------|--3--------------|----------------------



Important: The song above is NOT stored on the Chordie server. The original song is hosted at www.gospelmusic.org.uk. Chordie works as a search engine and provides on-the-fly formatting. Chordie does not index songs against artists'/composers' will. To remove this song please click here.

Text color:
Chord color:
Chord grids: 
Font size:    
Page size: 

C F G
variations - click chord images

Login - add to songbook

Transpose chords

Tuning

Rating click stars to rate

Layout
Accuracy

SHARE PAGE  




You need to log in to post comments