Guitar Tabs, Chords and Lyrics


Praise the Lord  Misc. Gospel

[D]Praise the Lord, pr[C]aise the L[D]ord, and bl[G]ess His holy n[D]ame
Cause [G]He don't ever ch[D]ange
He's the [D]one, H[C]e's the o[D]ne, it don't m[G]atter what you d[D]one
He wants to l[G]ove you just the s[D]ame


|D C |D |D |G |D |D |G |D |D |


|D C |D |D |G |D |D |G |D |D |D |D |


When old tr[D]ouble c[C]omes al[D]ong, and tempt[G]ation is growing st[D]rong
Take my h[G]and dear Lord I pr[D]ay
Hear my [D]cry, he[C]ar my p[D]lea, have m[G]ercy on [D]me
And let Your lo[G]ve show me the w[D]ay
[D]Praise the Lord, pr[C]aise the L[D]ord, and bl[G]ess His holy n[D]ame
Cause [G]He don't ever ch[D]ange
He's the [D]one, H[C]e's the o[D]ne, it don't m[G]atter what you d[D]one
He wants to l[G]ove you just the s[D]ame
|D C |D |D |G |D |D |G |D |D |


|D C |D |D |G |D |D |G |D |D |D |D |


As I l[D]abor i[C]n this l[D]and, be my str[G]ength, help me st[D]and
Lead me [G]on the narrow w[D]ay
Many l[D]oved ones n[C]ow are g[D]one, but I k[G]now I'm coming h[D]ome
Soon we'll a[G]ll be there to s[D]ay
[D]Praise the Lord, pr[C]aise the Lo[D]rd, and bl[G]ess His holy n[D]ame
Cause [G]He don't ever ch[D]ange
He's the [D]one, H[C]e's the o[D]ne, it don't m[G]atter what you d[D]one
He wants to l[G]ove you just the s[D]ame
|D C |D |D |G |D |D |G |D |D |D |D |


TAB capo 3


INTRO
__ __ __ __ __ __ __ __ __ __
| | | | | | | | | | | | | | | | | | | | | |
|------------------------|------------------------|------------------------|
|------------------------|------------------------|------------------------|
|------------------------|------------------------|--------1--2-----2------|
|--0--------------0------|--------0-----5--3--0---|--0-------H---0--------0|
|-----------0--2--------0|-35--------------------5|-----0------------------|
|-----1--2---------------|--S---------------------|------------------------|



__ __ __ __ __ __ __ __ __ __ __
| | | | | | | | | | | | | | | | | | | | | | |
|-----------3------------|------------------------|------------------------|
|-----------------3------|------------------------|------------------------|
|--2----------------32---|--0--------0------------|------------------------|
|-----0--------------P---|-----2--0-----3--4--0---|--0-----------0--------0|
|------------------------|-------P--------H------3|-----0--4--5-----4--5---|
|------------------------|------------------------|-------------------S----|



__ __ __ __ __ __ __ __ __ __
| | | | | | | | | | | | | | | | | | | | | |
|------------------------|------------------------|-----------------7--5---|
|------------------------|------------------------|-------------------P---6|
|------------------------|-----------0------------|--0---------------------|
|-----------0--------0---|-----0--2-----3--2--0---|------------------------|
|-----4--5-------45-----1|--2----H-----------P---3|------------------------|
|-------S---------S------|-H----------------------|------------------------|



__ __ __ __ __ __ __ __ __ __ __
| | | | | | | | | | | | | | | | | | | | | | |
|--0---------------------|------------------------|--------2--2--2--2--2--2|
|-----3--1---------------|------------------------|--------3--3--3--3--3--3|
|-----------2--0--2------|------------------------|--------2--2--2--2--2--2|
|--------------------3--4|--0--------0------------|--0---------------------|
|----------------------S-|-----3--0-----------2--0|------------------------|
|------------------------|--------------1--2----P-|------------------------|



fiddle with guitar lick
__ __ __ __ __ __ __ __ __ __
| | | | | | | | | | | | | | | | | | | | | |
|------------------------|------------------------|--------2-----2--2--2--2|
|------------------------|------------------------|--3-----3-----3--3--3--3|
|1-0-----0---------------|------------------------|--2-----2-----2--2--2--2|
|-P---0-----3-----0------|--0--------------------0|--0---------------------|
|--------------0-----3--0|-----2--0--------0--2---|------------------------|
|------------------------|-----------1--2---------|------------------------|

[B]                                     


Flatt run in D
__ __ __ __ __
| | | | | | | | | | | | |
|------------------------|--------2--2--2--2--2--2|------------------------|
|------------------------|--------3--3--3--3--3--3|------------------------|
|------------------------|--------2--2--2--2--2--2|------------------------|
|------------------------|--0---------------------|------------------------|
|--------------------0--2|------------------------|------------------------|
|--------------1--2------|------------------------|------------------------|



lick in D9
__ __ __ __
| | | | | | | | | | | |
|-----------5-/7--------7|-\5--5--------5---------|------------------------|
|-----------5-/7--------7|-\5--5--------5---------|------------------------|
|-----------5-/7--------7|-\5--5--------5---------|------------------------|
|------------------------|------------------------|------------------------|
|------------------------|-----------5------------|------------------------|
|------------------------|------------------------|------------------------|



Outro
__ __ __ __ __ __ __ __ __ __
| | | | | | | | | | | | | | | | | | | | | |
|------------------------|------------------------|------------------------|
|------------------------|------------------------|------------------------|
|------------------------|------------------------|--------1--2-----2------|
|--------------------0---|--------0-----5--3--0---|--0-------H---0--------0|
|--------------0--2-----0|--3--5-----------------5|-----0------------------|
|--------1--2----H-------|----S-------------------|------------------------|



__ __ __ __ __ __ __ __ __ __ __ __
| | | | | | | | | | | | | | | | | | | | | | | |
|-----------3------------|------------------------|------------------------|
|-----------------3------|------------------------|------------------------|
|--2----------------32---|--0--------0------------|------------------------|
|-----0--------------P--0|-----2--0-----3--4--0---|--0-----------0--------0|
|------------------------|-------P--------S------3|-----0--3--5-----4--5---|
|------------------------|------------------------|----------S--------S----|



__ __ __ __ __ __ __ __ __ __ __
| | | | | | | | | | | | | | | | | | | | | | |
|------------------------|------------------------|-----------------------7|
|------------------------|------------------------|------------------------|
|-----------------0------|-----------0------------|------------------------|
|--------0-----0---------|-----0--2-----3--2--0---|--0-----------0---------|
|-----5-----5-----------1|--2----------------P---3|-----0--3--5------------|
|------------------------|-H----------------------|----------S-------------|



__ __ __ __ __ __ __ __
| | | | | | | | | | | | | | | | |
|--5-----0---------------|------------------------|--2---------------------|
|-P---6-----3--1---------|------------------------|--3---------------------|
|-----------------2--0--2|------------------------|--2---------------------|
|------------------------|--3--4--0-----0---------|--0---------------------|
|------------------------|----S------3-----2--2---|------------------------|
|------------------------|-----------------------2|------------------------|



*****


Important: The song above is NOT stored on the Chordie server. The original song is hosted at www.gospelmusic.org.uk. Chordie works as a search engine and provides on-the-fly formatting. Chordie does not index songs against artists'/composers' will. To remove this song please click here.

Text color:
Chord color:
Chord grids: 
Font size:    
Page size: 

B C D G
variations - click chord images

Login - add to songbook

Transpose chords

Tuning

Rating click stars to rate

Layout
Accuracy

SHARE PAGE  




You need to log in to post comments