Guitar Tabs, Chords and Lyrics


Roll Jordan Roll  Misc. Gospel

[C]Roll Jordan roll
[Bb]Roll Jor[C]dan [G7]roll
I [C]want to [F]go [Dm]to [Gm]heaven when I [E7]die
[Am]To [C]hear [G7]Jordan [C]roll

O [C]brothers you ought to ha' [G7]been there
[C]Yes [F]my [C]   [D7]lord[G] a [C]sittin'[Em] in the [Dm]King[Gm7]dom  [C7]
[F]To [C]hear [G7]Jordan [C]roll
[Am]Roll [Em]Jordan [F]roll
[Gm7]Roll [C]Jordan [G]rol[Dm7]l    [G]
I [C]want to [F]go to [Gm]heaven when I [E7]die
[Am]To [C]hear [G7]Jordan [C]roll

O preachers you ought to ha' been there, etc

O sinners you ought to ha' been there, etc

~~~~~~~~~~~~~~~~~~~~~~~~

Tablature version arranged and "TablEdited" by Jim Cobble
james.cobble@mciworld.com

Tuning : E A D G B E Time Signature: 4/4

| | | | | | | |
|--------------------------------|--------------------------------|
|--------------------------------|----5---5---5---7---5---2-------|
|------------------------2-------|6-------6-------6-------2-------|
|--------------------------------|------6---------5-------2-------|
|--------------------------------|--------------------------------|
|--------------------------------|--------------------------------|


| | | | | | | |
|------------------------0-------|------------0---5-------9/7-5---|
|2-------0-----------------5-----|--------2-------5---------------|
|1-------1---------2-2-2---------|2---------------6-------9/7-6---|
|2-------0-----------------------|--------------------------------|
|----------------4---------------|0---------------0---------------|
|--------------------------------|--------------------------------|


| | | | | | | |
|--------5-------------------0---|5-----0-5-----0-2---0-0---------|
|7-------7---7---5---------2-----|------------------------2-0-----|
|7-----------7---6-------2-------|----2-------2-------2-------2---|
|0-------------------------------|----2-------2-------2-------2---|
|----------------0---------------|0---------------0---------------|
|--------------------------------|--------0---------------0-------|


| | | | | | | |
|--------------------------------|--0---0-0-0-0---2---0-----------|
|2-------2---0-------------------|2-------------------------------|
|----1-----------2-----------2---|----2-------2-------2-------2---|
|----2-------2-------2-------2---|----2-------2-------2-------2---|
|2---------------0---------------|0---------------0---------------|
|--------0---------------0-------|--------0---------------0-------|


| | | | | | | |
|--------------------------------|--0-----0-----0-2---0-----------|
|2-------2-------0---------------|2-------------------------------|
|2-------2-------1-----------2---|----2-------2-------2-------2---|
|----2-------2-------2-------2---|----2-------2-------2-------2---|
|0---------------2---------------|0---------------0---------------|
|--------0---------------0-------|--------0---------------0-------|


| | | | chorus | | |
|--------------------------------|------------0---5-------9-------|
|2-------2---0-------------------|--------2-------5---------12----|
|----1-------1---2---------------|2-------------------6-------14--|
|----2-------2-------2-------2---|----2-------2-------7-----------|
|2---------------0---------------|0---------------0---------------|
|--------0---------------0-------|--------0-----------------------|


| | | | | | | |
|--------5-----------------------|5-----0-5-----------------------|
|7-------7---7---5-----------5---|--------------5-7---5-5/2-0-----|
|7-----------7---6-----------6---|6-----6-6-----6-7---6-6/2---2---|
|----7-------7-------7-------7---|----7-------7-------7-------2---|
|5---------------0---------------|0---------------5---------------|
|--------5---------------0-------|--------0---------------0-------|


| | | | | | | |
|--------------------------------|--------------0-5-------9-------|
|2-------2---0-------------------|--------2-------5---------12----|
|2-------1---1---2---------------|2-----2-----2---6-----------14--|
|----2-------2-------2-------2---|--2-------2---------2-----------|
|0---------------0---------------|----0-----------0---------------|
|--------0---------------0-------|--------------------------------|


| | | | | | | |
|----------------------------0---|5-------5-----------0-0---------|
|7-------10------5-----------2---|------5-------5-7---2-2-2-0-----|
|----------------6---------------|6-----6-6-----6-7-------2---2---|
|--7-------10--------7-------2---|----7-------7-------2-------2---|
|----9-----------7---------------|0---------------0---------------|
|------------13----------0-------|--------0---------------0-------|


| | | | | | | |
|--------------------------------|--0---0-0-0-0---2---0-----------|
|2-------2---0-------------------|2-------------------------------|
|2-------1---1---2-----------2---|----2-------2-------2-------2---|
|----2-------2-------2-------2---|----2-------2-------2-------2---|
|0---------------0---------------|0---------------0---------------|
|--------0---------------0-------|--------0---------------0-------|


| | | | | | | |
|--------------------------------|--0-----0-----0-2---0-----------|
|2-------2-------0---------------|2-------------------------------|
|2-------2-------1-----------2---|----2-------2-------2-------2---|
|----2-------2-------2-------2---|----2-------2-------2-------2---|
|0---------------2---------------|0---------------0---------------|
|--------0---------------0-------|--------0---------------0-------|


chorus | | | | | | |
|--------------------------------|------------0---5/--0-----------|
|2-------2---0-------------------|--------2-------5/--2---5---2---|
|2-------1---1---2---------------|2-----------2---6---2---6/--2---|
|----2-------2-------2-------2---|----2-------2-------------------|
|0---------------0---------------|0---------------0---------------|
|--------0---------------0-------|--------0-----------------------|


| | | | | | | |
|--------5-------0-----------0---|5-------5-----0-2---0-0---------|
|7-------7---7---2-----------2---|------5---------3---2-2-2-------|
|7-----------7-------2-----------|6-----6-6-----------------4-2---|
|----7-------7-------2-------2---|----7-------7-------2-------2---|
|5---------------0---------------|0---------------5---------------|
|--------5---------------0-------|--------0---------------0-------|


| | | |
|--------------------0---5-------|
|2-------2---0-----2-2---2-------|
|2-------1---1---2-2-2---2-------|
|----2-------2---2-2-----2-------|
|0---------------0-------0-------|
|--------0-----------------------|



Important: The song above is NOT stored on the Chordie server. The original song is hosted at www.gospelmusic.org.uk. Chordie works as a search engine and provides on-the-fly formatting. Chordie does not index songs against artists'/composers' will. To remove this song please click here.

Text color:
Chord color:
Chord grids: 
Font size:    
Page size: 

Am Bb C C7 D7 Dm Dm7 E7 Em F G G7 Gm Gm7
variations - click chord images

Login - add to songbook

Transpose chords

Tuning

Rating click stars to rate

Layout
Accuracy

SHARE PAGE  




You need to log in to post comments