Guitar Tabs, Chords and Lyrics


Unclouded Day  Misc. Gospel

    [C]                                       [F]                  [C]                              
E------------------|--------------|-----------------|-------------------
B------------------|--------------|-----------------|-------------------
G------------------|--------------|-----------------|-------------------
D------------------|--------------|--2--0-----3-----|-----------2-------
A---------0--3--x--|--3--3--3--x--|-----------3--x--|--3--0-----3-------
E------3-----------|--------------|-----------------|-----------3--x----

                                           [G]                                               
E---|--------------|--------------|--------------|--------------|-------
B---|--------------|--------------|--------------|--------------|-------
G---|--------------|--------------|-----0--------|--------------|-------
D---|--------------|--------------|--2-----------|--------------|-------
A---|-----0--3--x--|--3--3--3--x--|--------------|--------------|-------
E---|--3-----------|--------------|--------3--x--|--3--3--3--x--|--3----

       [C]                              [F]                  [C]                                   
E------------|--------------|-----------------|--------------------|----
B------------|--------------|-----------------|--------------------|----
G------------|--------------|-----------------|--------------------|----
D------------|--------------|--2--0-----3-----|-----------2--------|----
A---0--3--x--|--3--3--3--x--|-----------3--x--|--3--0-----3--------|----
E------------|--------------|-----------------|-----------3--x--x--|----
E--------------------|----------------|----------------|----------------
B--------------------|----------------|----------------|----------------
G---0--x--0h2--0--x--|----------------|----------------|----------------
D--------------------|-----0--0h2--x--|--2p0-----------|----------------
A--------------------|--3-------------|-------3--x--x--|--0-------------
E--------------------|----------------|----------------|-----3--0h3-----
E------------|------------------------|-------------------------|-------
B------------|------------------------|-------------------------|-------
G------------|---------------0--x--x--|--0h2--0-----------------|-------
D------------|----------0h2-----------|----------2--0-----------|--0----
A---3--x--x--|-----0h3----------------|----------------3--x--x--|-------
E------------|--3---------------------|-------------------------|-------
E-----------------|------------------------|--------------|-------------
B-----------------|------------------------|--------------|-------------
G-----------------|---------------0--x--x--|--2--0--------|--------0----
D------0h2--x--x--|----------0h2-----------|--------2--0--|-----2-------
A---3-------------|-----0h3----------------|--------------|--3----------
E-----------------|--3---------------------|--------------|-------------

    [G]                    [C]                                       [F]                           
E---------------|----------------|--------------|-----------------------
B---------------|----------------|--------------|-----------------1-----
G---------------|----------------|--------------|-----------------------
D---------------|----------------|--------------|--0--1--2--3-----------
A---------------|-----0h3--x--x--|--3--3--3--x--|-----------------------
E------3--x--x--|--3-------------|--------------|-----------------------

                  [C]                                                                        
E------|-------------0-----|----------------|-------------|-------------
B---x--|-------------1-----|----------------|-------------|-------------
G------|--0h2--0-----0-----|-------0--x--x--|--0h2--0--x--|-------------
D------|-------------2-----|--0h2-----------|-------------|-----0--2----
A------|-------------3--x--|----------------|-------------|--3----------
E------|-------------------|----------------|-------------|-------------
E------------|-----------------|--------------|-------------------------
B------------|-----------------|--------------|---------------1---------
G------------|-----------------|--------------|----------0h2------------
D---0--------|--2--0-----------|--0-----------|--0--1h2-----------------
A------3--x--|--------3--2--x--|-----3--x--x--|-------------------------
E------------|-----------------|--------------|-------------------------


Important: The song above is NOT stored on the Chordie server. The original song is hosted at www.gospelmusic.org.uk. Chordie works as a search engine and provides on-the-fly formatting. Chordie does not index songs against artists'/composers' will. To remove this song please click here.

Text color:
Chord color:
Chord grids: 
Font size:    
Page size: 

C F G
variations - click chord images

Login - add to songbook

Transpose chords

Tuning

Rating click stars to rate

Layout
Accuracy

SHARE PAGE  




You need to log in to post comments