Guitar Tabs, Chords and Lyrics


We Can Make a Difference  Misc. Gospel

     4        $ [D]w           [E7]w         w[G/A]           [G]e e e [D]e+h
|-----------|------------|----------|-----------|------------
|-----------|---3--------|-3--------|-3---------|-3-3---3----
|-----------|---2--------|-1--------|-0---------|-0-0-r-2----
|-----------|---0--------|-0--------|-0---------|-0-0---0----
|-----------|---0--------|-2--------|-0---------|-2-2---0----
|-----------|------------|----------|-----------|------------


1st time only
  [Cmaj7/9]w    +w
|-0---|----
|-3---|----
|-4---|----
|-2---|----
|-3---|----
|-----|----    Come on now!


VERSE (keyboards and bass)

  [D]        [E7]          [G/A]         [G]       [D] 
  [D]        [E7]          [G/A]         [G]       [D] 

VERSE 1

We live in a dream
If we really think
Everything's alright

This world is in need
Crying out to be freed
We gotta shed some light

VERSE 2

Do you know a man
Who's needing a hand?
Don't ya walk on by

A sister is sad
Lost all that she had
We gotta take the time

VERSE 3

Doo Doo Doo Doo Doo ...


BRIDGE (keyboards and bass)

  [F#]        [G]         [F#]          [Bmin]        
E7 A7 &

BRIDGE 1 and 3

Teach the world to smile
And hear angels sing
Feel the breath of God
And the power it brings
It' time to come together, you and I
And share the love of Jesus Christ

BRIDGE 2

Look around your world
It will testify
Some have empty hearts
Some have hungry eyes
God can heal the suffering through our hands
Find compassion, take a stand


CHORUS (distorted guitar 6th tuned to D, with acoustic
guitar in standard tuning)
_____________
|1.
D(no 3rd) F G
eeeeeeee eeH e Q e Q e Q e Q
||------------|-----------|---------|----------||
||------------|-----------|---------|----------||
||.-----------|-----------|-2-------|-4-------.||
||.-----------|-----------|-3-^-^-^-|-5-^-^-^-.||
||--5-5-5-5---|-5-5-------|-3-------|-5--------||
||---0-0-0-0--|--0--------|-3-------|-5--------||


_______________________
|2. D.S. 1st and 2nd
G D.S. al coda 3rd
e Q e Q
|----------
|----------
|-4--------
|-5-^-^-^--
|-5--------
|-5--------


We can make a difference
We can make a change
We can make the world a better place
We can make a difference
We can make a change
We can make the sun shine through the rain
(Shine on through the rain)


CODA repeat chorus 4 times
B7 E(no 3rd) G A
|-----------||-----------|------------|----------||
|-----------||-----------|------------|----------||
|-----------||.---./-----|------------|---------.||
|-----------||.---/.-----|------------|---------.||
|-----------||-----------|------------|----------||
|-----------||-----------|------------|----------||

simile to chorus

  [D]                e e e   [E]
|-----------|-----------|-----------|------------
|-----------|-----------|-----------|------------
|-----------|-----------|-----------|------------
|-----------|-----0-----|-----------|------------
|-----------|-------4-2-|-----------|------------
|-----------|-----------|-----------|------------



Legend:
w,h,q,e,s = whole,half,quarter,eighth,sixteenth
H,Q,E = dotted half, quarter, eighth
+ = tie
/ = slide up
\ = slide down
r = rest
^ = strum
h = hammer
p = pulloff
. = staccato
() = optional note
$ = segno (sign)
& = go to coda
D.S. = Dal segno, back to the sign
D.S. al coda = back to the sign, then to coda

Comments, suggestions, corrections:
crickman@bellsouth.net


Important: The song above is NOT stored on the Chordie server. The original song is hosted at www.gospelmusic.org.uk. Chordie works as a search engine and provides on-the-fly formatting. Chordie does not index songs against artists'/composers' will. To remove this song please click here.

Text color:
Chord color:
Chord grids: 
Font size:    
Page size: 

Bmin Cmaj7/9 D E E7 F# G
variations - click chord images

Login - add to songbook

Transpose chords

Tuning

Rating click stars to rate

Layout
Accuracy

SHARE PAGE  




You need to log in to post comments