HERE WITHOUT YOU

3 Doors Down

 AmG
A hundred days have made me older Since the last time that I saw your
 AmFG
pretty face,  
 AmG
A thousand lies have made me colder, And I don't think I can look at this the same
 AmG
 An all the miles that separate,
 AmFG
 They Disappear now when I'm dreamin' of your face
CHORUS
 CGAm
 I'm here without you baby, But you're still on my lonely mind
 FGC
I think about you baby and I dream about you all the time
 GAm
I'm here without you baby, But you're still with me in my dreams,
 FGAmGAmFG
And tonight, there's only you and me  yeah.   
 AmGAmFG
The miles just keep rollin', As the people leave their way to say hello   
 AmGAm
I've heard this life is overrated, But I hope that it gets better as we go
 FG
 hooh yeah yeah.
CHORUS
 AmCG
 Everything I know, and anywhere I go 
 F
It gets hard but it won't take away my love,
 AmCG
 And when the last one falls, when it's all said and done.
 FCGAmFG
It gets hard but it won't take, away, my love, woah oh Woah    wo-oh   
CHORUS
Intro/Verse
 AmFGAmG
e--------------------------------------------------------------------
B------1--0--0-1---------------0-------1--0--0-1--------0--1--0-1/3--
G-----2-2--2--2-2-----2------0--0-----2-2--2--2-2------0-0--0--0-----
D----2---2--2----2---3-3------0--0---2---2--2----2----0---0--0-------
A--0--------------0-3---3---2------0---------------0-2---------------
E------------------1-------3------------------------3----------------

CHORUS Repeat 2X'S
 CGAm
e----------------1-0-----------3--1-0------------------------
B----1-3--1--1------3-1-----0---------3-----1--3--1-3-1-0-1--
G---0-0-0--0--0-----------0--0------------2--2--2--2---------
D--------2--2------------0-0--0--0-0-0---2-2--2--2-----------
A--3--------------------2---------------0--------------------
E------------------------------------------------------------

 FG
e-------------------
B-----1--------0----
G----2-2-----0--0---
D---3---3-----0--0--
A--3--------2-------
E---------3---------

play second time through chorus
 AmGAmFG
e----------------------------------------------------------------
B-----1--0--0-1--------0--0--1/3-----1--0--0-1--------------0----
G----2-2--2--2-2------0--0--0-------2-2--2--2-2-----2-----0--0---
D---2---2--2----2----0-------------2---2--2----2---3-3-----0--0--
A-0--------------0--2------------0--------------0-3---3--2-------
E------------------3-----------------------------1------3--------



Am C F G
variations - click chord images
Transpose chords:
Tuning:
Cool service:
View: Size:
A  A  A
Rating:
Layout:
  • Currently 3.9/5 Stars.
  • 1
  • 2
  • 3
  • 4
  • 5
 
Accuracy:
  • Currently 3.8/5 Stars.
  • 1
  • 2
  • 3
  • 4
  • 5
 
click stars to rate
Chordie recommends:
Learn to play this song & others via video guitar lessons at JamPlay.com
Songbook:
Login to add this song to your songbook
Support the artist
Preview/buy this song
MSN Music
Why this non-profit ad?

 
login to add comments/video/corrections

sleeven (report comment to admin):
for correct sound you need to capo first fret