Chordie logo

Weekend Warriors   A Change Of Pace



This is my first tab so i hpoe its ok =]

 Intro:
e|------------------------------------:|
B|------------------------------------:|
G|------------------------------------:|   X5
D|-------7-77-7-7777722222------------:|
A|444-44-5-45-5-7777722222------------:|
E|202-20--------5555500000-540--------:|
 
Pre-Chorus:
e|-------------------------------------|
B|3-------3---3333333------------------|
G|2-------2---2222222------------------|
D|----2--------------------------------|
A|----2--------------------------------|
E|----0--------------------------------|

 Chorus:
e|-------------------------------------|
B|-------------------------------------|
G|-------------------------------------|   X2
D|------------------------77777777-----|
A|77777777222222224444444455555555-----|
E|555555550000000022222222-------------|

 Intro [Again] :
e|------------------------------------:|
B|------------------------------------:|
G|------------------------------------:|   X5
D|-------7-77-7-7777722222------------:|
A|444-44-5-45-5-7777722222------------:|
E|202-20--------5555500000-540--------:|
 
Pre-Chorus:
e|-------------------------------------|
B|3-------3---3333333------------------|
G|2-------2---2222222------------------|
D|----2--------------------------------|
A|----2--------------------------------|
E|----0--------------------------------|

 Chorus:
e|-------------------------------------|
B|-------------------------------------|
G|-------------------------------------|   X2
D|------------------------77777777-----|
A|77777777222222224444444455555555-----|
E|555555550000000022222222-------------|

 Bridge/Solo:
   
  Bridge:
e|-------------------------------------|
B|-------------------------------------|
G|-----------------7-------------------|   X3
D|44-66-77-66-4422-7-------------------|
A|44-66-77-66-4422-5-------------------|
E|22-44-55-44-2200---------------------|

  Solo [Play over bridge-They are pull-offs] :

e|975975975975975975975975975----------|
B|-------------------------------------|
G|-------------------------------------|    X3
D|-------------------------------------|
A|-------------------------------------|
E|-------------------------------------|

 Ending:
e|-------------------------------------|
B|-------------------------------------|

G|-------------------------------------|   
D|-------7-----------------------------|
A|444-44-5-----------------------------|
E|202-20-------------------------------|



Important: The song above is NOT stored on the Chordie server. The original song is hosted at www.guitaretab.com. Chordie works as a search engine and provides on-the-fly formatting. Chordie does not index songs against artists/composers will. To remove this song please click here.

This song is displayed as text-only. Transposing and tuning is only available for chordpro-songs.

Login - add to songbook

Rating click stars to rate

Layout
Accuracy

SHARE PAGE  

You need to log in to post comments