Guitar Tabs, Chords and Lyrics


All We Really Own   A Global Threat



ALL WE REALLY OWN
a global threat

E-----------------------------------------|00:00
B-----------------------------------------|
G-7-------9-----------4-------------------|
D-7---7---9---7---4---4---2-22222222222222|
A-5---7---7---7---4---2---2-22222222222222|
E-----5-------5---2-------0-00000000000000|
                            ..............

E-----------------------------------------|00:08 
B-----------------------------------------|X2
G-7-------9-----------4-------------------|
D-7---7---9---7---4---4---2-22222222222222|
A-5---7---7---7---4---2---2-22222222222222|
E-----5-------5---2-------0-00000000000000|

E-------------------------------| 00:17
B-------------------------------|
G------9999-11111111\9/11111111-|
D-7777-9999-11111111\9/11111111-|
A-7777-7777-9-9-9-9-\7/9-9-9-9--|
E-5555--------------------------|

E-------------------------------| E--12-999--9------------| 00:20
B-------------------------------| B--------12--10-9-10----|
G------9999-11111111\9/11111111-| G--------------------11~|
D-7777-9999-11111111\9/11111111-| D-----------------------|
A-7777-7777-9-9-9-9-\7/9-9-9-9--| A-----------------------|
E-5555--------------------------| E-----------------------|

E-----------------------------------------------| 00:23
B-----------------------------------------------|
G------9999-11111111\9/11111111-9---------------|
D-7777-9999-11111111\9/11111111-9-22222222222222|
A-7777-7777-9-9-9-9-\7/9-9-9-9--7-22222222222222|
E-5555----------------------------00000000000000|
                                  ..............

E-----------------------------------------------| 00:28
B-----------------------------------------------| X4
G-7777------9999-----------4444-----------------|
D-7777-7777-9999-7777-4444-4444-2222222222222222|
A-5777-7777-7777-7777-4444-2222-2222222222222222|
E------5555------5555-2222------0000000000000000|

E-----------------x3|3rd-time--------| 00:48
B-------------------|----------------|
G----------7777-----|----------------|
D-7-7-7777-7777-4444|2-22222222222222|
A-7-7-7777-5555-4444|2-22222222222222|
E-5-5-5555------2222|0-00000000000000|
                       ..............
E-----------------x3|3rd-time----------------| 00:59
B-------------------|------------------------|
G----------7777-----|------------------------|
D-7-7-7777-7777-4444|2-22222222222222-7-7~~~~|
A-7-7-7777-5555-4444|2-22222222222222-7-7~~~~|
E-5-5-5555------2222|0-00000000000000-5-5~~~~|


Important: The song above is NOT stored on the Chordie server. The original song is hosted at www.guitaretab.com. Chordie works as a search engine and provides on-the-fly formatting. Chordie does not index songs against artists'/composers' will. To remove this song please click here.

This song is displayed as text-only. Transposing and tuning is only available for chordpro-songs.

Login - add to songbook

Rating click stars to rate

Layout
Accuracy

SHARE PAGE  




You need to log in to post comments