Guitar Tabs, Chords and Lyrics


Hey  Unknown

e|-----------------------|


B|-----------------------|


G|--8--8\\\----8-8-9-----|      play 4x

D|-----------------------|
A|-----------------------|
E|-----------------------|
[B]Hang on, d[C#m]on't be frightened,
[B]Hold on, k[C#m]eep the light on,
[B]  You call me [C#m]anytime you want to.
[B]Keep a [C#m]night in summer,
[B]Don't cry [C#m]when its over,
[B]  You take me [C#m]anywhere you need to.
guitar2 (not 100% sure about this one) listen to the song to get the timing right
e|--0----0----------0-----0------------|
B|--4-------4-------4--------4---------|
G|--4----------6----6-----------4------|   4x
D|-------------------------------------|
A|-------------------------------------|
E|-------------------------------------|


(i love this one)
e|----------7---------------------7---------------------|
B|-------7-----7-----7---------7-----7-----7-----7------|
G|----------------9-----8---------------9-----8---------|   4x
D|----9--------------------11---------------------------|
A|------------------------------------------------------|
E|------------------------------------------------------|


PRE-CHORUS

[E]  Like its your birthday,
[E]  Like on your first date,

CHORUS

guitar 1:
[B]  Hey! You're gonna [C#m]make it in your own way!
[B]   You're gonna [C#m]make it in your own way!
[B]  Hey! You gotta [C#m]make it in your own way!
[B]  Or you're gonna [C#m]fall...

guitar 2 (not sure about this either)
e|---0-----------------0---|
B|------4-----4--------4---|
G|---------4-----6-----4---|  4x
D|-------------------------|
A|-------------------------|
E|-------------------------|


VERSE 2 (play it just like verse 1)

Come on, getting violent,
Be strong, and don't be frightened,
That's crazy talk where out from hold you lost this.
Go where the weather takes you,
Don't care, they'll never break you,
Love is all we needed in the first place.

PRE-CHORUS
[E]  Like its your birthday,
[E]  Like on your first date,

CHORUS
guitar 1:
[B]  Hey! You're gonna [C#m]make it in your own way!
[B]   You're gonna [C#m]make it in your own way!
[B]  Hey! You gotta [C#m]make it in your own way!
[B]  Or you're gonna [C#m]fall...

Hey! You gotta make it in your own way!
Hey! You gotta make it in your own way!
Hey! You gotta make it in your own way!
Or don't make it at all...

guitar 2
e|---0-----------------0---|
B|------4-----4--------4---|
G|---------4-----6-----4---|  8x
D|-------------------------|
A|-------------------------|
E|-------------------------|


BRIDGE

[F#]Days'll never [E]feel the same,
[F#]I get your tears, I [E]feel your pain,
I [F#]know two people that [E]think the same,
I'm [F#]giving you your [E]own way.

now play the
INTRO

PRE-CHORUS 2x

guitar 1:
[E]  Like its your birthday,
E 2x
Like on your first date,

guitar 2
e|-------------------------------------|
B|-------------------------------------|
G|----8---8---8---8---8---8---8---9b---|   4x
D|------9---9---9---9---9---9---9------|
A|-------------------------------------|
E|-------------------------------------|


CHORUS

guitar 1:
[B]  Hey! You're gonna [C#m]make it in your own way!
[B]   You're gonna [C#m]make it in your own way!
[B]  Hey! You gotta [C#m]make it in your own way!
[B]  Or you're gonna [C#m]fall...

Hey! You gotta make it in your own way!
Hey! You gotta make it in your own way!
Hey! You gotta make it in your own way!
Or don't make it at all...


guitar 2
e|---0-----------------0---|
B|------4-----4--------4---|
G|---------4-----6-----4---|
D|-------------------------|
A|-------------------------|
E|-------------------------|


guitar 3 (in the very background)
e|-----------------------|
B|-----------------------|
G|--8--8\\\----8-8-9-----|
D|-----------------------|
A|-----------------------|
E|-----------------------|


guitar 4 (this could also be guitar 2 after having played the other riff 4 times...)
e|----------7---------------------7---------------------|
B|-------7-----7-----7---------7-----7-----7-----7------|
G|----------------9-----8---------------9-----8---------|
D|----9--------------------11---------------------------|
A|------------------------------------------------------|
E|------------------------------------------------------|


OUTRO
e|----------7---------------------7---------------------|
B|-------7-----7-----7---------7-----7-----7-----7------|
G|----------------9-----8---------------9-----8---------|   3x
D|----9--------------------11---------------------------|
A|------------------------------------------------------|
E|------------------------------------------------------|
e|----------7----------------------|
B|-------7-----7-----7-------------|
G|----------------9-----8-----9----|
D|----9-----------------------11---|
A|---------------------------------|
E|---------------------------------|				


Important: The song above is NOT stored on the Chordie server. The original song is hosted at www.guitaretab.com. Chordie works as a search engine and provides on-the-fly formatting. Chordie does not index songs against artists'/composers' will. To remove this song please click here.

Text color:
Chord color:
Chord grids: 
Font size:    
Page size: 

B C#m E F#
variations - click chord images

Login - add to songbook

Transpose chords

Tuning

Rating click stars to rate

Layout
Accuracy

Jango Player

SHARE PAGE  




You need to log in to post comments